  0
SECTION
  2
HEADER
  9
$ACADVER
  1
AC1015
  9
$ACADMAINTVER
 70
     6
  9
$DWGCODEPAGE
  3
ANSI_932
  9
$INSBASE
 10
0.0
 20
0.0
 30
0.0
  9
$EXTMIN
 10
-127.0
 20
-241.266666666667
 30
0.0
  9
$EXTMAX
 10
536.0
 20
572.0
 30
0.0
  9
$LIMMIN
 10
0.0
 20
0.0
  9
$LIMMAX
 10
12.0
 20
9.0
  9
$ORTHOMODE
 70
     0
  9
$REGENMODE
 70
     1
  9
$FILLMODE
 70
     1
  9
$QTEXTMODE
 70
     0
  9
$MIRRTEXT
 70
     1
  9
$LTSCALE
 40
1.0
  9
$ATTMODE
 70
     1
  9
$TEXTSIZE
 40
0.2
  9
$TRACEWID
 40
0.05
  9
$TEXTSTYLE
  7
Standard
  9
$CLAYER
  8
0
  9
$CELTYPE
  6
ByLayer
  9
$CECOLOR
 62
   256
  9
$CELTSCALE
 40
1.0
  9
$DISPSILH
 70
     0
  9
$DIMSCALE
 40
1.0
  9
$DIMASZ
 40
0.18
  9
$DIMEXO
 40
0.0625
  9
$DIMDLI
 40
0.38
  9
$DIMRND
 40
0.0
  9
$DIMDLE
 40
0.0
  9
$DIMEXE
 40
0.18
  9
$DIMTP
 40
0.0
  9
$DIMTM
 40
0.0
  9
$DIMTXT
 40
0.18
  9
$DIMCEN
 40
0.09
  9
$DIMTSZ
 40
0.0
  9
$DIMTOL
 70
     0
  9
$DIMLIM
 70
     0
  9
$DIMTIH
 70
     1
  9
$DIMTOH
 70
     1
  9
$DIMSE1
 70
     0
  9
$DIMSE2
 70
     0
  9
$DIMTAD
 70
     0
  9
$DIMZIN
 70
     0
  9
$DIMBLK
  1

  9
$DIMASO
 70
     1
  9
$DIMSHO
 70
     1
  9
$DIMPOST
  1

  9
$DIMAPOST
  1

  9
$DIMALT
 70
     0
  9
$DIMALTD
 70
     2
  9
$DIMALTF
 40
25.4
  9
$DIMLFAC
 40
1.0
  9
$DIMTOFL
 70
     0
  9
$DIMTVP
 40
0.0
  9
$DIMTIX
 70
     0
  9
$DIMSOXD
 70
     0
  9
$DIMSAH
 70
     0
  9
$DIMBLK1
  1

  9
$DIMBLK2
  1

  9
$DIMSTYLE
  2
Standard
  9
$DIMCLRD
 70
     0
  9
$DIMCLRE
 70
     0
  9
$DIMCLRT
 70
     0
  9
$DIMTFAC
 40
1.0
  9
$DIMGAP
 40
0.09
  9
$DIMJUST
 70
     0
  9
$DIMSD1
 70
     0
  9
$DIMSD2
 70
     0
  9
$DIMTOLJ
 70
     1
  9
$DIMTZIN
 70
     0
  9
$DIMALTZ
 70
     0
  9
$DIMALTTZ
 70
     0
  9
$DIMUPT
 70
     0
  9
$DIMDEC
 70
     4
  9
$DIMTDEC
 70
     4
  9
$DIMALTU
 70
     2
  9
$DIMALTTD
 70
     2
  9
$DIMTXSTY
  7
Standard
  9
$DIMAUNIT
 70
     0
  9
$DIMADEC
 70
     0
  9
$DIMALTRND
 40
0.0
  9
$DIMAZIN
 70
     0
  9
$DIMDSEP
 70
    46
  9
$DIMATFIT
 70
     3
  9
$DIMFRAC
 70
     0
  9
$DIMLDRBLK
  1

  9
$DIMLUNIT
 70
     2
  9
$DIMLWD
 70
    -2
  9
$DIMLWE
 70
    -2
  9
$DIMTMOVE
 70
     0
  9
$LUNITS
 70
     2
  9
$LUPREC
 70
     4
  9
$SKETCHINC
 40
0.1
  9
$FILLETRAD
 40
0.5
  9
$AUNITS
 70
     0
  9
$AUPREC
 70
     0
  9
$MENU
  1
.
  9
$ELEVATION
 40
0.0
  9
$PELEVATION
 40
0.0
  9
$THICKNESS
 40
0.0
  9
$LIMCHECK
 70
     0
  9
$CHAMFERA
 40
0.5
  9
$CHAMFERB
 40
0.5
  9
$CHAMFERC
 40
1.0
  9
$CHAMFERD
 40
0.0
  9
$SKPOLY
 70
     0
  9
$TDCREATE
 40
2457624.689109248
  9
$TDUCREATE
 40
2457624.314109248
  9
$TDUPDATE
 40
2457624.689109259
  9
$TDUUPDATE
 40
2457624.314109259
  9
$TDINDWG
 40
0.0000000116
  9
$TDUSRTIMER
 40
0.0000000116
  9
$USRTIMER
 70
     1
  9
$ANGBASE
 50
0.0
  9
$ANGDIR
 70
     0
  9
$PDMODE
 70
     0
  9
$PDSIZE
 40
0.0
  9
$PLINEWID
 40
0.0
  9
$SPLFRAME
 70
     0
  9
$SPLINETYPE
 70
     6
  9
$SPLINESEGS
 70
     8
  9
$HANDSEED
  5
3B2
  9
$SURFTAB1
 70
     6
  9
$SURFTAB2
 70
     6
  9
$SURFTYPE
 70
     6
  9
$SURFU
 70
     6
  9
$SURFV
 70
     6
  9
$UCSBASE
  2

  9
$UCSNAME
  2

  9
$UCSORG
 10
0.0
 20
0.0
 30
0.0
  9
$UCSXDIR
 10
1.0
 20
0.0
 30
0.0
  9
$UCSYDIR
 10
0.0
 20
1.0
 30
0.0
  9
$UCSORTHOREF
  2

  9
$UCSORTHOVIEW
 70
     0
  9
$UCSORGTOP
 10
0.0
 20
0.0
 30
0.0
  9
$UCSORGBOTTOM
 10
0.0
 20
0.0
 30
0.0
  9
$UCSORGLEFT
 10
0.0
 20
0.0
 30
0.0
  9
$UCSORGRIGHT
 10
0.0
 20
0.0
 30
0.0
  9
$UCSORGFRONT
 10
0.0
 20
0.0
 30
0.0
  9
$UCSORGBACK
 10
0.0
 20
0.0
 30
0.0
  9
$PUCSBASE
  2

  9
$PUCSNAME
  2

  9
$PUCSORG
 10
0.0
 20
0.0
 30
0.0
  9
$PUCSXDIR
 10
1.0
 20
0.0
 30
0.0
  9
$PUCSYDIR
 10
0.0
 20
1.0
 30
0.0
  9
$PUCSORTHOREF
  2

  9
$PUCSORTHOVIEW
 70
     0
  9
$PUCSORGTOP
 10
0.0
 20
0.0
 30
0.0
  9
$PUCSORGBOTTOM
 10
0.0
 20
0.0
 30
0.0
  9
$PUCSORGLEFT
 10
0.0
 20
0.0
 30
0.0
  9
$PUCSORGRIGHT
 10
0.0
 20
0.0
 30
0.0
  9
$PUCSORGFRONT
 10
0.0
 20
0.0
 30
0.0
  9
$PUCSORGBACK
 10
0.0
 20
0.0
 30
0.0
  9
$USERI1
 70
     0
  9
$USERI2
 70
     0
  9
$USERI3
 70
     0
  9
$USERI4
 70
     0
  9
$USERI5
 70
     0
  9
$USERR1
 40
18.0
  9
$USERR2
 40
0.0
  9
$USERR3
 40
0.0
  9
$USERR4
 40
0.0
  9
$USERR5
 40
0.0
  9
$WORLDVIEW
 70
     1
  9
$SHADEDGE
 70
     3
  9
$SHADEDIF
 70
    70
  9
$TILEMODE
 70
     1
  9
$MAXACTVP
 70
    64
  9
$PINSBASE
 10
0.0
 20
0.0
 30
0.0
  9
$PLIMCHECK
 70
     0
  9
$PEXTMIN
 10
1.00000000000000E+20
 20
1.00000000000000E+20
 30
1.00000000000000E+20
  9
$PEXTMAX
 10
-1.00000000000000E+20
 20
-1.00000000000000E+20
 30
-1.00000000000000E+20
  9
$PLIMMIN
 10
0.0
 20
0.0
  9
$PLIMMAX
 10
12.0
 20
9.0
  9
$UNITMODE
 70
     0
  9
$VISRETAIN
 70
     1
  9
$PLINEGEN
 70
     0
  9
$PSLTSCALE
 70
     1
  9
$TREEDEPTH
 70
  3020
  9
$CMLSTYLE
  2
Standard
  9
$CMLJUST
 70
     0
  9
$CMLSCALE
 40
1.0
  9
$PROXYGRAPHICS
 70
     1
  9
$MEASUREMENT
 70
     1
  9
$CELWEIGHT
370
    -1
  9
$ENDCAPS
280
     0
  9
$JOINSTYLE
280
     0
  9
$LWDISPLAY
290
     0
  9
$INSUNITS
 70
     1
  9
$HYPERLINKBASE
  1

  9
$STYLESHEET
  1

  9
$XEDIT
290
     1
  9
$CEPSNTYPE
380
     0
  9
$PSTYLEMODE
290
     1
  9
$FINGERPRINTGUID
  2
{ECD2A7C5-CC44-4643-9428-C88D5F9C70D3}
  9
$VERSIONGUID
  2
{FAEB1C32-E019-11D5-929B-00C0DF256EC4}
  9
$EXTNAMES
290
     1
  9
$PSVPSCALE
 40
0.0
  9
$OLESTARTUP
290
     0
  0
ENDSEC
  0
SECTION
  2
CLASSES
  0
CLASS
  1
ACDBDICTIONARYWDFLT
  2
AcDbDictionaryWithDefault
  3
ObjectDBX Classes
 90
        0
280
     0
281
     0
  0
CLASS
  1
VISUALSTYLE
  2
AcDbVisualStyle
  3
ObjectDBX Classes
 90
     4095
280
     0
281
     0
  0
CLASS
  1
MATERIAL
  2
AcDbMaterial
  3
ObjectDBX Classes
 90
     1153
280
     0
281
     0
  0
CLASS
  1

  2
exOdDbCircle
  3

 90
        0
280
     0
281
     1
  0
CLASS
  1

  2
exOdDbPolyline
  3

 90
        0
280
     0
281
     1
  0
CLASS
  1
DICTIONARYVAR
  2
AcDbDictionaryVar
  3
ObjectDBX Classes
 90
        0
280
     0
281
     0
  0
CLASS
  1
ACDBPLACEHOLDER
  2
AcDbPlaceHolder
  3
ObjectDBX Classes
 90
        0
280
     0
281
     0
  0
CLASS
  1
LAYOUT
  2
AcDbLayout
  3
ObjectDBX Classes
 90
        0
280
     0
281
     0
  0
ENDSEC
  0
SECTION
  2
TABLES
  0
TABLE
  2
VPORT
  5
8
330
0
100
AcDbSymbolTable
 70
     1
  0
VPORT
  5
29
330
8
100
AcDbSymbolTableRecord
100
AcDbViewportTableRecord
  2
*Active
 70
     0
 10
0.0
 20
0.0
 11
1.0
 21
1.0
 12
204.5
 22
165.3666666666665
 13
0.0
 23
0.0
 14
0.5
 24
0.5
 15
0.5
 25
0.5
 16
0.0
 26
0.0
 36
1.0
 17
0.0
 27
0.0
 37
0.0
 40
894.5933333333338
 41
1.60267857142857
 42
50.0
 43
0.0
 44
0.0
 50
0.0
 51
0.0
 71
     0
 72
   100
 73
     1
 74
     3
 75
     0
 76
     0
 77
     0
 78
     0
281
     0
 65
     1
110
0.0
120
0.0
130
0.0
111
1.0
121
0.0
131
0.0
112
0.0
122
1.0
132
0.0
 79
     0
146
0.0
  0
ENDTAB
  0
TABLE
  2
LTYPE
  5
5
330
0
100
AcDbSymbolTable
 70
     8
  0
LTYPE
  5
14
330
5
100
AcDbSymbolTableRecord
100
AcDbLinetypeTableRecord
  2
ByBlock
 70
     0
  3

 72
    65
 73
     0
 40
0.0
  0
LTYPE
  5
15
330
5
100
AcDbSymbolTableRecord
100
AcDbLinetypeTableRecord
  2
ByLayer
 70
     0
  3

 72
    65
 73
     0
 40
0.0
  0
LTYPE
  5
16
330
5
100
AcDbSymbolTableRecord
100
AcDbLinetypeTableRecord
  2
Continuous
 70
     0
  3
Solid line
 72
    65
 73
     0
 40
0.0
  0
LTYPE
  5
3F
330
5
100
AcDbSymbolTableRecord
100
AcDbLinetypeTableRecord
  2
DASHED
 70
     0
  3
Dashed
 72
    65
 73
     2
 40
15.0
 49
7.0
 74
     0
 49
-8.0
 74
     0
  0
LTYPE
  5
40
330
5
100
AcDbSymbolTableRecord
100
AcDbLinetypeTableRecord
  2
DOTTED
 70
     0
  3
Dotted
 72
    65
 73
     2
 40
1.0
 49
0.0
 74
     0
 49
-1.0
 74
     0
  0
LTYPE
  5
41
330
5
100
AcDbSymbolTableRecord
100
AcDbLinetypeTableRecord
  2
DOT_CENTER
 70
     0
  3
Dot_Center
 72
    65
 73
     4
 40
14.0
 49
12.0
 74
     0
 49
-1.0
 74
     0
 49
0.0
 74
     0
 49
-1.0
 74
     0
  0
LTYPE
  5
42
330
5
100
AcDbSymbolTableRecord
100
AcDbLinetypeTableRecord
  2
LONG_DASHED
 70
     0
  3
Long_Dashed
 72
    65
 73
     2
 40
15.0
 49
10.0
 74
     0
 49
-5.0
 74
     0
  0
LTYPE
  5
43
330
5
100
AcDbSymbolTableRecord
100
AcDbLinetypeTableRecord
  2
DASH_CENTER
 70
     0
  3
Dash_Center
 72
    65
 73
     4
 40
14.0
 49
11.0
 74
     0
 49
-1.0
 74
     0
 49
1.0
 74
     0
 49
-1.0
 74
     0
  0
LTYPE
  5
44
330
5
100
AcDbSymbolTableRecord
100
AcDbLinetypeTableRecord
  2
PHANTOM
 70
     0
  3
Phantom
 72
    65
 73
     6
 40
13.0
 49
10.0
 74
     0
 49
-1.0
 74
     0
 49
0.0
 74
     0
 49
-1.0
 74
     0
 49
0.0
 74
     0
 49
-1.0
 74
     0
  0
LTYPE
  5
45
330
5
100
AcDbSymbolTableRecord
100
AcDbLinetypeTableRecord
  2
CENTER_DASH_DASH
 70
     0
  3
Center_Dash_Dash
 72
    65
 73
     6
 40
14.0
 49
9.0
 74
     0
 49
-1.0
 74
     0
 49
1.0
 74
     0
 49
-1.0
 74
     0
 49
1.0
 74
     0
 49
-1.0
 74
     0
  0
ENDTAB
  0
TABLE
  2
LAYER
  5
2
330
0
100
AcDbSymbolTable
 70
     4
  0
LAYER
  5
10
330
2
100
AcDbSymbolTableRecord
100
AcDbLayerTableRecord
  2
0
 70
     0
 62
     7
  6
Continuous
370
    -3
390
F
  0
LAYER
  5
46
330
2
100
AcDbSymbolTableRecord
100
AcDbLayerTableRecord
  2
1
 70
     0
 62
     7
  6
Continuous
370
    -3
390
F
  0
LAYER
  5
47
330
2
100
AcDbSymbolTableRecord
100
AcDbLayerTableRecord
  2
100
 70
     0
 62
     7
  6
Continuous
370
    -3
390
F
  0
LAYER
  5
48
330
2
100
AcDbSymbolTableRecord
100
AcDbLayerTableRecord
  2
2
 70
     0
 62
     7
  6
Continuous
370
    -3
390
F
  0
ENDTAB
  0
TABLE
  2
STYLE
  5
3
330
0
100
AcDbSymbolTable
 70
     1
  0
STYLE
  5
11
330
3
100
AcDbSymbolTableRecord
100
AcDbTextStyleTableRecord
  2
Standard
 70
     0
 40
0.0
 41
1.0
 50
0.0
 71
     0
 42
0.2
  3
txt
  4

  0
ENDTAB
  0
TABLE
  2
VIEW
  5
6
330
0
100
AcDbSymbolTable
 70
     0
  0
ENDTAB
  0
TABLE
  2
UCS
  5
7
330
0
100
AcDbSymbolTable
 70
     0
  0
ENDTAB
  0
TABLE
  2
APPID
  5
9
330
0
100
AcDbSymbolTable
 70
     1
  0
APPID
  5
12
330
9
100
AcDbSymbolTableRecord
100
AcDbRegAppTableRecord
  2
ACAD
 70
     0
  0
ENDTAB
  0
TABLE
  2
DIMSTYLE
  5
A
330
0
100
AcDbSymbolTable
 70
     1
100
AcDbDimStyleTable
  0
DIMSTYLE
105
27
330
A
100
AcDbSymbolTableRecord
100
AcDbDimStyleTableRecord
  2
Standard
 70
     0
340
11
  0
ENDTAB
  0
TABLE
  2
BLOCK_RECORD
  5
1
330
0
100
AcDbSymbolTable
 70
     1
  0
BLOCK_RECORD
  5
1F
330
1
100
AcDbSymbolTableRecord
100
AcDbBlockTableRecord
  2
*Model_Space
340
22
  0
BLOCK_RECORD
  5
1B
330
1
100
AcDbSymbolTableRecord
100
AcDbBlockTableRecord
  2
*Paper_Space
340
1E
  0
BLOCK_RECORD
  5
23
330
1
100
AcDbSymbolTableRecord
100
AcDbBlockTableRecord
  2
*Paper_Space0
340
26
  0
ENDTAB
  0
ENDSEC
  0
SECTION
  2
BLOCKS
  0
BLOCK
  5
20
330
1F
100
AcDbEntity
  8
0
100
AcDbBlockBegin
  2
*Model_Space
 70
     0
 10
0.0
 20
0.0
 30
0.0
  3
*Model_Space
  1

  0
ENDBLK
  5
21
330
1F
100
AcDbEntity
  8
0
100
AcDbBlockEnd
  0
BLOCK
  5
1C
330
1B
100
AcDbEntity
 67
     1
  8
0
100
AcDbBlockBegin
  2
*Paper_Space
 70
     0
 10
0.0
 20
0.0
 30
0.0
  3
*Paper_Space
  1

  0
ENDBLK
  5
1D
330
1B
100
AcDbEntity
 67
     1
  8
0
100
AcDbBlockEnd
  0
BLOCK
  5
24
330
23
100
AcDbEntity
  8
0
100
AcDbBlockBegin
  2
*Paper_Space0
 70
     0
 10
0.0
 20
0.0
 30
0.0
  3
*Paper_Space0
  1

  0
ENDBLK
  5
25
330
23
100
AcDbEntity
  8
0
100
AcDbBlockEnd
  0
ENDSEC
  0
SECTION
  2
ENTITIES
  0
LINE
  5
49
330
1F
100
AcDbEntity
  8
1
  6
Continuous
 62
     4
100
AcDbLine
 10
13.3912988650692
 20
-238.766666666667
 30
0.0
 11
12.8912988650692
 21
-239.391666666667
 31
0.0
  0
LINE
  5
4A
330
1F
100
AcDbEntity
  8
1
  6
Continuous
 62
     4
100
AcDbLine
 10
12.8912988650692
 20
-238.141666666667
 30
0.0
 11
13.3912988650692
 21
-238.766666666667
 31
0.0
  0
LINE
  5
4B
330
1F
100
AcDbEntity
  8
1
  6
Continuous
 62
     4
100
AcDbLine
 10
9.6412988650692
 20
-238.766666666667
 30
0.0
 11
13.3912988650692
 21
-238.766666666667
 31
0.0
  0
LINE
  5
4C
330
1F
100
AcDbEntity
  8
1
  6
Continuous
 62
     4
100
AcDbLine
 10
5.5162988650692
 20
-237.329166666667
 30
0.0
 11
8.3912988650692
 21
-237.329166666667
 31
0.0
  0
LINE
  5
4D
330
1F
100
AcDbEntity
  8
1
  6
Continuous
 62
     4
100
AcDbLine
 10
5.5162988650692
 20
-237.329166666667
 30
0.0
 11
6.2037988650692
 21
-236.391666666667
 31
0.0
  0
LINE
  5
4E
330
1F
100
AcDbEntity
  8
1
  6
Continuous
 62
     4
100
AcDbLine
 10
7.1412988650692
 20
-239.704166666667
 30
0.0
 11
6.0787988650692
 21
-239.704166666667
 31
0.0
  0
LINE
  5
4F
330
1F
100
AcDbEntity
  8
1
  6
Continuous
 62
     4
100
AcDbLine
 10
7.1412988650692
 20
-238.454166666667
 30
0.0
 11
7.1412988650692
 21
-239.704166666667
 31
0.0
  0
LINE
  5
50
330
1F
100
AcDbEntity
  8
1
  6
Continuous
 62
     4
100
AcDbLine
 10
6.0787988650692
 20
-238.454166666667
 30
0.0
 11
7.1412988650692
 21
-238.454166666667
 31
0.0
  0
LINE
  5
51
330
1F
100
AcDbEntity
  8
1
  6
Continuous
 62
     4
100
AcDbLine
 10
6.0787988650692
 20
-239.704166666667
 30
0.0
 11
6.0787988650692
 21
-238.454166666667
 31
0.0
  0
LINE
  5
52
330
1F
100
AcDbEntity
  8
1
  6
Continuous
 62
     4
100
AcDbLine
 10
8.3912988650692
 20
-241.079166666667
 30
0.0
 11
7.7037988650692
 21
-241.079166666667
 31
0.0
  0
LINE
  5
53
330
1F
100
AcDbEntity
  8
1
  6
Continuous
 62
     4
100
AcDbLine
 10
8.3912988650692
 20
-237.329166666667
 30
0.0
 11
8.3912988650692
 21
-241.079166666667
 31
0.0
  0
LINE
  5
54
330
1F
100
AcDbEntity
  8
1
  6
Continuous
 62
     4
100
AcDbLine
 10
4.8287988650692
 20
-237.329166666667
 30
0.0
 11
5.5162988650692
 21
-237.329166666667
 31
0.0
  0
LINE
  5
55
330
1F
100
AcDbEntity
  8
1
  6
Continuous
 62
     4
100
AcDbLine
 10
4.8287988650692
 20
-241.079166666667
 30
0.0
 11
4.8287988650692
 21
-237.329166666667
 31
0.0
  0
LINE
  5
56
330
1F
100
AcDbEntity
  8
1
  6
Continuous
 62
     4
100
AcDbLine
 10
2.1412988650692
 20
-241.266666666667
 30
0.0
 11
1.6412988650692
 21
-240.954166666667
 31
0.0
  0
LINE
  5
57
330
1F
100
AcDbEntity
  8
1
  6
Continuous
 62
     4
100
AcDbLine
 10
2.4537988650692
 20
-240.766666666667
 30
0.0
 11
2.1412988650692
 21
-241.266666666667
 31
0.0
  0
LINE
  5
58
330
1F
100
AcDbEntity
  8
1
  6
Continuous
 62
     4
100
AcDbLine
 10
2.7037988650692
 20
-240.016666666667
 30
0.0
 11
2.4537988650692
 21
-240.766666666667
 31
0.0
  0
LINE
  5
59
330
1F
100
AcDbEntity
  8
1
  6
Continuous
 62
     4
100
AcDbLine
 10
3.0162988650692
 20
-238.891666666667
 30
0.0
 11
2.7037988650692
 21
-240.016666666667
 31
0.0
  0
LINE
  5
5A
330
1F
100
AcDbEntity
  8
1
  6
Continuous
 62
     4
100
AcDbLine
 10
3.0162988650692
 20
-238.454166666667
 30
0.0
 11
3.0162988650692
 21
-238.891666666667
 31
0.0
  0
LINE
  5
5B
330
1F
100
AcDbEntity
  8
1
  6
Continuous
 62
     4
100
AcDbLine
 10
1.2037988650692
 20
-238.454166666667
 30
0.0
 11
3.0162988650692
 21
-238.454166666667
 31
0.0
  0
LINE
  5
5C
330
1F
100
AcDbEntity
  8
1
  6
Continuous
 62
     4
100
AcDbLine
 10
-0.4837011349308
 20
-237.204166666667
 30
0.0
 11
3.7037988650692
 21
-237.204166666667
 31
0.0
  0
LINE
  5
5D
330
1F
100
AcDbEntity
  8
1
  6
Continuous
 62
     4
100
AcDbLine
 10
1.3287988650692
 20
-237.641666666667
 30
0.0
 11
1.4537988650692
 21
-236.391666666667
 31
0.0
  0
LINE
  5
5E
330
1F
100
AcDbEntity
  8
1
  6
Continuous
 62
     4
100
AcDbLine
 10
1.0787988650692
 20
-238.891666666667
 30
0.0
 11
1.3287988650692
 21
-237.641666666667
 31
0.0
  0
LINE
  5
5F
330
1F
100
AcDbEntity
  8
1
  6
Continuous
 62
     4
100
AcDbLine
 10
0.7662988650692
 20
-239.704166666667
 30
0.0
 11
1.0787988650692
 21
-238.891666666667
 31
0.0
  0
LINE
  5
60
330
1F
100
AcDbEntity
  8
1
  6
Continuous
 62
     4
100
AcDbLine
 10
0.3912988650692
 20
-240.454166666667
 30
0.0
 11
0.7662988650692
 21
-239.704166666667
 31
0.0
  0
LINE
  5
61
330
1F
100
AcDbEntity
  8
1
  6
Continuous
 62
     4
100
AcDbLine
 10
-0.1712011349308
 20
-241.079166666667
 30
0.0
 11
0.3912988650692
 21
-240.454166666667
 31
0.0
  0
LINE
  5
62
330
1F
100
AcDbEntity
  8
1
  6
Continuous
 62
     4
100
AcDbLine
 10
-1.8587011349308
 20
-239.704166666667
 30
0.0
 11
-1.1712011349308
 21
-240.454166666667
 31
0.0
  0
LINE
  5
63
330
1F
100
AcDbEntity
  8
1
  6
Continuous
 62
     4
100
AcDbLine
 10
-2.4212011349308
 20
-238.766666666667
 30
0.0
 11
-1.8587011349308
 21
-239.704166666667
 31
0.0
  0
LINE
  5
64
330
1F
100
AcDbEntity
  8
1
  6
Continuous
 62
     4
100
AcDbLine
 10
-2.8587011349308
 20
-237.641666666667
 30
0.0
 11
-2.4212011349308
 21
-238.766666666667
 31
0.0
  0
LINE
  5
65
330
1F
100
AcDbEntity
  8
1
  6
Continuous
 62
     4
100
AcDbLine
 10
-1.6087011349308
 20
-237.516666666667
 30
0.0
 11
-2.5462011349308
 21
-238.266666666667
 31
0.0
  0
LINE
  5
66
330
1F
100
AcDbEntity
  8
1
  6
Continuous
 62
     4
100
AcDbLine
 10
-3.2337011349308
 20
-241.266666666667
 30
0.0
 11
-3.6712011349308
 21
-241.079166666667
 31
0.0
  0
LINE
  5
67
330
1F
100
AcDbEntity
  8
1
  6
Continuous
 62
     4
100
AcDbLine
 10
-3.2337011349308
 20
-236.391666666667
 30
0.0
 11
-3.2337011349308
 21
-241.266666666667
 31
0.0
  0
LINE
  5
68
330
1F
100
AcDbEntity
  8
1
  6
Continuous
 62
     4
100
AcDbLine
 10
-3.9212011349308
 20
-237.954166666667
 30
0.0
 11
-5.3587011349308
 21
-237.954166666667
 31
0.0
  0
LINE
  5
69
330
1F
100
AcDbEntity
  8
1
  6
Continuous
 62
     4
100
AcDbLine
 10
-4.2337011349308
 20
-238.891666666667
 30
0.0
 11
-3.9212011349308
 21
-237.954166666667
 31
0.0
  0
LINE
  5
6A
330
1F
100
AcDbEntity
  8
1
  6
Continuous
 62
     4
100
AcDbLine
 10
-4.7962011349308
 20
-239.829166666667
 30
0.0
 11
-4.2337011349308
 21
-238.891666666667
 31
0.0
  0
LINE
  5
6B
330
1F
100
AcDbEntity
  8
1
  6
Continuous
 62
     4
100
AcDbLine
 10
-5.3587011349308
 20
-240.454166666667
 30
0.0
 11
-4.7962011349308
 21
-239.829166666667
 31
0.0
  0
LINE
  5
6C
330
1F
100
AcDbEntity
  8
1
  6
Continuous
 62
     4
100
AcDbLine
 10
-8.1087011349308
 20
-237.016666666667
 30
0.0
 11
-6.4212011349308
 21
-237.016666666667
 31
0.0
  0
LINE
  5
6D
330
1F
100
AcDbEntity
  8
1
  6
Continuous
 62
     4
100
AcDbLine
 10
-6.1712011349308
 20
-240.766666666667
 30
0.0
 11
-6.1712011349308
 21
-240.454166666667
 31
0.0
  0
LINE
  5
6E
330
1F
100
AcDbEntity
  8
1
  6
Continuous
 62
     4
100
AcDbLine
 10
-6.4212011349308
 20
-241.079166666667
 30
0.0
 11
-6.1712011349308
 21
-240.766666666667
 31
0.0
  0
LINE
  5
6F
330
1F
100
AcDbEntity
  8
1
  6
Continuous
 62
     4
100
AcDbLine
 10
-6.9837011349308
 20
-241.079166666667
 30
0.0
 11
-6.4212011349308
 21
-241.079166666667
 31
0.0
  0
LINE
  5
70
330
1F
100
AcDbEntity
  8
1
  6
Continuous
 62
     4
100
AcDbLine
 10
-7.2962011349308
 20
-240.641666666667
 30
0.0
 11
-6.9837011349308
 21
-241.079166666667
 31
0.0
  0
LINE
  5
71
330
1F
100
AcDbEntity
  8
1
  6
Continuous
 62
     4
100
AcDbLine
 10
-7.2962011349308
 20
-239.079166666667
 30
0.0
 11
-7.2962011349308
 21
-240.641666666667
 31
0.0
  0
LINE
  5
72
330
1F
100
AcDbEntity
  8
1
  6
Continuous
 62
     4
100
AcDbLine
 10
-8.1087011349308
 20
-241.079166666667
 30
0.0
 11
-8.1087011349308
 21
-239.079166666667
 31
0.0
  0
LINE
  5
73
330
1F
100
AcDbEntity
  8
1
  6
Continuous
 62
     4
100
AcDbLine
 10
-9.3587011349308
 20
-240.954166666667
 30
0.0
 11
-9.7962011349308
 21
-241.266666666667
 31
0.0
  0
LINE
  5
74
330
1F
100
AcDbEntity
  8
1
  6
Continuous
 62
     4
100
AcDbLine
 10
-9.1087011349308
 20
-240.641666666667
 30
0.0
 11
-9.3587011349308
 21
-240.954166666667
 31
0.0
  0
LINE
  5
75
330
1F
100
AcDbEntity
  8
1
  6
Continuous
 62
     4
100
AcDbLine
 10
-8.9212011349308
 20
-240.141666666667
 30
0.0
 11
-9.1087011349308
 21
-240.641666666667
 31
0.0
  0
LINE
  5
76
330
1F
100
AcDbEntity
  8
1
  6
Continuous
 62
     4
100
AcDbLine
 10
-8.7962011349308
 20
-239.079166666667
 30
0.0
 11
-8.9212011349308
 21
-240.141666666667
 31
0.0
  0
LINE
  5
77
330
1F
100
AcDbEntity
  8
1
  6
Continuous
 62
     4
100
AcDbLine
 10
-7.4212011349308
 20
-237.516666666667
 30
0.0
 11
-6.8587011349308
 21
-238.579166666667
 31
0.0
  0
LINE
  5
78
330
1F
100
AcDbEntity
  8
1
  6
Continuous
 62
     4
100
AcDbLine
 10
-9.2337011349308
 20
-238.266666666667
 30
0.0
 11
-7.1087011349308
 21
-238.141666666667
 31
0.0
  0
LINE
  5
79
330
1F
100
AcDbEntity
  8
1
  6
Continuous
 62
     4
100
AcDbLine
 10
-8.1087011349308
 20
-237.016666666667
 30
0.0
 11
-8.6712011349308
 21
-238.266666666667
 31
0.0
  0
LINE
  5
7A
330
1F
100
AcDbEntity
  8
1
  6
Continuous
 62
     4
100
AcDbLine
 10
-7.9837011349308
 20
-236.266666666667
 30
0.0
 11
-7.9837011349308
 21
-237.016666666667
 31
0.0
  0
LINE
  5
7B
330
1F
100
AcDbEntity
  8
1
  6
Continuous
 62
     4
100
AcDbLine
 10
-9.4837011349308
 20
-237.016666666667
 30
0.0
 11
-8.1087011349308
 21
-237.016666666667
 31
0.0
  0
LINE
  5
7C
330
1F
100
AcDbEntity
  8
1
  6
Continuous
 62
     4
100
AcDbLine
 10
-10.4837011349308
 20
-241.079166666667
 30
0.0
 11
-9.9212011349308
 21
-239.079166666667
 31
0.0
  0
LINE
  5
7D
330
1F
100
AcDbEntity
  8
1
  6
Continuous
 62
     4
100
AcDbLine
 10
-10.6087011349308
 20
-237.829166666667
 30
0.0
 11
-10.1712011349308
 21
-238.266666666667
 31
0.0
  0
LINE
  5
7E
330
1F
100
AcDbEntity
  8
1
  6
Continuous
 62
     4
100
AcDbLine
 10
-10.1712011349308
 20
-236.391666666667
 30
0.0
 11
-9.9212011349308
 21
-236.891666666667
 31
0.0
  0
LINE
  5
7F
330
1F
100
AcDbEntity
  8
1
  6
Continuous
 62
     4
100
AcDbLine
 10
70.6502024237049
 20
-222.507103830456
 30
0.0
 11
71.6502024237049
 21
-223.132103830456
 31
0.0
  0
LINE
  5
80
330
1F
100
AcDbEntity
  8
1
  6
Continuous
 62
     4
100
AcDbLine
 10
72.0252024237049
 20
-222.194603830456
 30
0.0
 11
71.2127024237049
 21
-221.569603830456
 31
0.0
  0
LINE
  5
81
330
1F
100
AcDbEntity
  8
1
  6
Continuous
 62
     4
100
AcDbLine
 10
72.7127024237049
 20
-221.444603830456
 30
0.0
 11
73.1502024237049
 21
-221.882103830456
 31
0.0
  0
LINE
  5
82
330
1F
100
AcDbEntity
  8
1
  6
Continuous
 62
     4
100
AcDbLine
 10
73.4627024237049
 20
-221.569603830456
 30
0.0
 11
73.0252024237049
 21
-221.132103830456
 31
0.0
  0
LINE
  5
83
330
1F
100
AcDbEntity
  8
1
  6
Continuous
 62
     4
100
AcDbLine
 10
73.1502024237049
 20
-223.444603830456
 30
0.0
 11
73.8377024237049
 21
-222.507103830456
 31
0.0
  0
LINE
  5
84
330
1F
100
AcDbEntity
  8
1
  6
Continuous
 62
     4
100
AcDbLine
 10
72.0252024237049
 20
-224.382103830456
 30
0.0
 11
73.1502024237049
 21
-223.444603830456
 31
0.0
  0
LINE
  5
85
330
1F
100
AcDbEntity
  8
1
  6
Continuous
 62
     4
100
AcDbLine
 10
70.9627024237049
 20
-225.007103830456
 30
0.0
 11
72.0252024237049
 21
-224.382103830456
 31
0.0
  0
LINE
  5
86
330
1F
100
AcDbEntity
  8
1
  6
Continuous
 62
     4
100
AcDbLine
 10
68.2752024237049
 20
-223.632103830456
 30
0.0
 11
68.7127024237049
 21
-224.257103830456
 31
0.0
  0
LINE
  5
87
330
1F
100
AcDbEntity
  8
1
  6
Continuous
 62
     4
100
AcDbLine
 10
67.7127024237049
 20
-223.132103830456
 30
0.0
 11
68.2752024237049
 21
-223.632103830456
 31
0.0
  0
LINE
  5
88
330
1F
100
AcDbEntity
  8
1
  6
Continuous
 62
     4
100
AcDbLine
 10
67.3377024237049
 20
-221.132103830456
 30
0.0
 11
67.5877024237049
 21
-221.444603830456
 31
0.0
  0
LINE
  5
89
330
1F
100
AcDbEntity
  8
1
  6
Continuous
 62
     4
100
AcDbLine
 10
66.7752024237049
 20
-220.819603830456
 30
0.0
 11
67.3377024237049
 21
-221.132103830456
 31
0.0
  0
LINE
  5
8A
330
1F
100
AcDbEntity
  8
1
  6
Continuous
 62
     4
100
AcDbLine
 10
68.0252024237049
 20
-222.069603830456
 30
0.0
 11
66.0877024237049
 21
-222.069603830456
 31
0.0
  0
LINE
  5
8B
330
1F
100
AcDbEntity
  8
1
  6
Continuous
 62
     4
100
AcDbLine
 10
67.0252024237049
 20
-223.132103830456
 30
0.0
 11
68.0252024237049
 21
-222.069603830456
 31
0.0
  0
LINE
  5
8C
330
1F
100
AcDbEntity
  8
1
  6
Continuous
 62
     4
100
AcDbLine
 10
65.6502024237049
 20
-224.069603830456
 30
0.0
 11
67.0252024237049
 21
-223.132103830456
 31
0.0
  0
LINE
  5
8D
330
1F
100
AcDbEntity
  8
1
  6
Continuous
 62
     4
100
AcDbLine
 10
67.2127024237049
 20
-225.007103830456
 30
0.0
 11
67.2127024237049
 21
-223.007103830456
 31
0.0
  0
LINE
  5
8E
330
1F
100
AcDbEntity
  8
1
  6
Continuous
 62
     4
100
AcDbLine
 10
60.4627024237049
 20
-225.507103830456
 30
0.0
 11
63.4627024237049
 21
-225.507103830456
 31
0.0
  0
LINE
  5
8F
330
1F
100
AcDbEntity
  8
1
  6
Continuous
 62
     4
100
AcDbLine
 10
63.2127024237049
 20
-222.257103830456
 30
0.0
 11
60.4627024237049
 21
-225.507103830456
 31
0.0
  0
LINE
  5
90
330
1F
100
AcDbEntity
  8
1
  6
Continuous
 62
     4
100
AcDbLine
 10
63.4627024237049
 20
-221.757103830456
 30
0.0
 11
63.2127024237049
 21
-222.257103830456
 31
0.0
  0
LINE
  5
91
330
1F
100
AcDbEntity
  8
1
  6
Continuous
 62
     4
100
AcDbLine
 10
63.4627024237049
 20
-221.257103830456
 30
0.0
 11
63.4627024237049
 21
-221.757103830456
 31
0.0
  0
LINE
  5
92
330
1F
100
AcDbEntity
  8
1
  6
Continuous
 62
     4
100
AcDbLine
 10
63.2127024237049
 20
-220.882103830456
 30
0.0
 11
63.4627024237049
 21
-221.257103830456
 31
0.0
  0
LINE
  5
93
330
1F
100
AcDbEntity
  8
1
  6
Continuous
 62
     4
100
AcDbLine
 10
62.8377024237049
 20
-220.632103830456
 30
0.0
 11
63.2127024237049
 21
-220.882103830456
 31
0.0
  0
LINE
  5
94
330
1F
100
AcDbEntity
  8
1
  6
Continuous
 62
     4
100
AcDbLine
 10
62.3377024237049
 20
-220.507103830456
 30
0.0
 11
62.8377024237049
 21
-220.632103830456
 31
0.0
  0
LINE
  5
95
330
1F
100
AcDbEntity
  8
1
  6
Continuous
 62
     4
100
AcDbLine
 10
61.5877024237049
 20
-220.507103830456
 30
0.0
 11
62.3377024237049
 21
-220.507103830456
 31
0.0
  0
LINE
  5
96
330
1F
100
AcDbEntity
  8
1
  6
Continuous
 62
     4
100
AcDbLine
 10
61.0877024237049
 20
-220.632103830456
 30
0.0
 11
61.5877024237049
 21
-220.507103830456
 31
0.0
  0
LINE
  5
97
330
1F
100
AcDbEntity
  8
1
  6
Continuous
 62
     4
100
AcDbLine
 10
60.7127024237049
 20
-220.882103830456
 30
0.0
 11
61.0877024237049
 21
-220.632103830456
 31
0.0
  0
LINE
  5
98
330
1F
100
AcDbEntity
  8
1
  6
Continuous
 62
     4
100
AcDbLine
 10
60.4627024237049
 20
-221.257103830456
 30
0.0
 11
60.7127024237049
 21
-220.882103830456
 31
0.0
  0
LINE
  5
99
330
1F
100
AcDbEntity
  8
1
  6
Continuous
 62
     4
100
AcDbLine
 10
56.9627024237049
 20
-225.507103830456
 30
0.0
 11
58.9627024237049
 21
-220.507103830456
 31
0.0
  0
LINE
  5
9A
330
1F
100
AcDbEntity
  8
1
  6
Continuous
 62
     4
100
AcDbLine
 10
55.4627024237049
 20
-220.507103830456
 30
0.0
 11
55.4627024237049
 21
-225.507103830456
 31
0.0
  0
LINE
  5
9B
330
1F
100
AcDbEntity
  8
1
  6
Continuous
 62
     4
100
AcDbLine
 10
53.9627024237049
 20
-222.007103830456
 30
0.0
 11
55.4627024237049
 21
-220.507103830456
 31
0.0
  0
LINE
  5
9C
330
1F
100
AcDbEntity
  8
1
  6
Continuous
 62
     4
100
AcDbLine
 10
48.4627024237049
 20
-220.507103830456
 30
0.0
 11
48.4627024237049
 21
-225.507103830456
 31
0.0
  0
LINE
  5
9D
330
1F
100
AcDbEntity
  8
1
  6
Continuous
 62
     4
100
AcDbLine
 10
46.9627024237049
 20
-222.007103830456
 30
0.0
 11
48.4627024237049
 21
-220.507103830456
 31
0.0
  0
LINE
  5
9E
330
1F
100
AcDbEntity
  8
1
  6
Continuous
 62
     4
100
AcDbLine
 10
41.9627024237049
 20
-225.507103830456
 30
0.0
 11
41.9627024237049
 21
-223.007103830456
 31
0.0
  0
LINE
  5
9F
330
1F
100
AcDbEntity
  8
1
  6
Continuous
 62
     4
100
AcDbLine
 10
43.9627024237049
 20
-223.007103830456
 30
0.0
 11
45.4627024237049
 21
-225.507103830456
 31
0.0
  0
LINE
  5
A0
330
1F
100
AcDbEntity
  8
1
  6
Continuous
 62
     4
100
AcDbLine
 10
44.3377024237049
 20
-223.007103830456
 30
0.0
 11
43.9627024237049
 21
-223.007103830456
 31
0.0
  0
LINE
  5
A1
330
1F
100
AcDbEntity
  8
1
  6
Continuous
 62
     4
100
AcDbLine
 10
44.8377024237049
 20
-222.882103830456
 30
0.0
 11
44.3377024237049
 21
-223.007103830456
 31
0.0
  0
LINE
  5
A2
330
1F
100
AcDbEntity
  8
1
  6
Continuous
 62
     4
100
AcDbLine
 10
45.2127024237049
 20
-222.632103830456
 30
0.0
 11
44.8377024237049
 21
-222.882103830456
 31
0.0
  0
LINE
  5
A3
330
1F
100
AcDbEntity
  8
1
  6
Continuous
 62
     4
100
AcDbLine
 10
45.3377024237049
 20
-222.382103830456
 30
0.0
 11
45.2127024237049
 21
-222.632103830456
 31
0.0
  0
LINE
  5
A4
330
1F
100
AcDbEntity
  8
1
  6
Continuous
 62
     4
100
AcDbLine
 10
45.4627024237049
 20
-222.007103830456
 30
0.0
 11
45.3377024237049
 21
-222.382103830456
 31
0.0
  0
LINE
  5
A5
330
1F
100
AcDbEntity
  8
1
  6
Continuous
 62
     4
100
AcDbLine
 10
45.4627024237049
 20
-221.507103830456
 30
0.0
 11
45.4627024237049
 21
-222.007103830456
 31
0.0
  0
LINE
  5
A6
330
1F
100
AcDbEntity
  8
1
  6
Continuous
 62
     4
100
AcDbLine
 10
45.3377024237049
 20
-221.132103830456
 30
0.0
 11
45.4627024237049
 21
-221.507103830456
 31
0.0
  0
LINE
  5
A7
330
1F
100
AcDbEntity
  8
1
  6
Continuous
 62
     4
100
AcDbLine
 10
45.2127024237049
 20
-220.882103830456
 30
0.0
 11
45.3377024237049
 21
-221.132103830456
 31
0.0
  0
LINE
  5
A8
330
1F
100
AcDbEntity
  8
1
  6
Continuous
 62
     4
100
AcDbLine
 10
44.8377024237049
 20
-220.632103830456
 30
0.0
 11
45.2127024237049
 21
-220.882103830456
 31
0.0
  0
LINE
  5
A9
330
1F
100
AcDbEntity
  8
1
  6
Continuous
 62
     4
100
AcDbLine
 10
44.3377024237049
 20
-220.507103830456
 30
0.0
 11
44.8377024237049
 21
-220.632103830456
 31
0.0
  0
LINE
  5
AA
330
1F
100
AcDbEntity
  8
1
  6
Continuous
 62
     4
100
AcDbLine
 10
41.9627024237049
 20
-220.507103830456
 30
0.0
 11
44.3377024237049
 21
-220.507103830456
 31
0.0
  0
LINE
  5
AB
330
1F
100
AcDbEntity
  8
1
  6
Continuous
 62
     4
100
AcDbLine
 10
41.9627024237049
 20
-223.007103830456
 30
0.0
 11
41.9627024237049
 21
-220.507103830456
 31
0.0
  0
LINE
  5
AC
330
1F
100
AcDbEntity
  8
1
  6
Continuous
 62
     4
100
AcDbLine
 10
43.9627024237049
 20
-223.007103830456
 30
0.0
 11
41.9627024237049
 21
-223.007103830456
 31
0.0
  0
LINE
  5
AD
330
1F
100
AcDbEntity
  8
1
  6
Continuous
 62
     4
100
AcDbLine
 10
202.187488554704
 20
-45.28232722666
 30
0.0
 11
203.187488554704
 21
-45.90732722666
 31
0.0
  0
LINE
  5
AE
330
1F
100
AcDbEntity
  8
1
  6
Continuous
 62
     4
100
AcDbLine
 10
203.562488554704
 20
-44.96982722666
 30
0.0
 11
202.749988554704
 21
-44.34482722666
 31
0.0
  0
LINE
  5
AF
330
1F
100
AcDbEntity
  8
1
  6
Continuous
 62
     4
100
AcDbLine
 10
204.249988554704
 20
-44.21982722666
 30
0.0
 11
204.687488554704
 21
-44.65732722666
 31
0.0
  0
LINE
  5
B0
330
1F
100
AcDbEntity
  8
1
  6
Continuous
 62
     4
100
AcDbLine
 10
204.999988554704
 20
-44.34482722666
 30
0.0
 11
204.562488554704
 21
-43.90732722666
 31
0.0
  0
LINE
  5
B1
330
1F
100
AcDbEntity
  8
1
  6
Continuous
 62
     4
100
AcDbLine
 10
204.687488554704
 20
-46.21982722666
 30
0.0
 11
205.374988554704
 21
-45.28232722666
 31
0.0
  0
LINE
  5
B2
330
1F
100
AcDbEntity
  8
1
  6
Continuous
 62
     4
100
AcDbLine
 10
203.562488554704
 20
-47.15732722666
 30
0.0
 11
204.687488554704
 21
-46.21982722666
 31
0.0
  0
LINE
  5
B3
330
1F
100
AcDbEntity
  8
1
  6
Continuous
 62
     4
100
AcDbLine
 10
202.499988554704
 20
-47.78232722666
 30
0.0
 11
203.562488554704
 21
-47.15732722666
 31
0.0
  0
LINE
  5
B4
330
1F
100
AcDbEntity
  8
1
  6
Continuous
 62
     4
100
AcDbLine
 10
199.562488554704
 20
-45.78232722666
 30
0.0
 11
200.249988554704
 21
-44.84482722666
 31
0.0
  0
LINE
  5
B5
330
1F
100
AcDbEntity
  8
1
  6
Continuous
 62
     4
100
AcDbLine
 10
198.437488554704
 20
-46.84482722666
 30
0.0
 11
199.562488554704
 21
-45.78232722666
 31
0.0
  0
LINE
  5
B6
330
1F
100
AcDbEntity
  8
1
  6
Continuous
 62
     4
100
AcDbLine
 10
197.499988554704
 20
-47.34482722666
 30
0.0
 11
198.437488554704
 21
-46.84482722666
 31
0.0
  0
LINE
  5
B7
330
1F
100
AcDbEntity
  8
1
  6
Continuous
 62
     4
100
AcDbLine
 10
197.312488554704
 20
-44.53232722666
 30
0.0
 11
197.999988554704
 21
-45.28232722666
 31
0.0
  0
LINE
  5
B8
330
1F
100
AcDbEntity
  8
1
  6
Continuous
 62
     4
100
AcDbLine
 10
192.624988554704
 20
-44.21982722666
 30
0.0
 11
194.812488554704
 21
-44.21982722666
 31
0.0
  0
LINE
  5
B9
330
1F
100
AcDbEntity
  8
1
  6
Continuous
 62
     4
100
AcDbLine
 10
195.124988554704
 20
-45.28232722666
 30
0.0
 11
192.312488554704
 21
-45.28232722666
 31
0.0
  0
LINE
  5
BA
330
1F
100
AcDbEntity
  8
1
  6
Continuous
 62
     4
100
AcDbLine
 10
194.812488554704
 20
-46.09482722666
 30
0.0
 11
195.124988554704
 21
-45.28232722666
 31
0.0
  0
LINE
  5
BB
330
1F
100
AcDbEntity
  8
1
  6
Continuous
 62
     4
100
AcDbLine
 10
193.999988554704
 20
-47.15732722666
 30
0.0
 11
194.812488554704
 21
-46.09482722666
 31
0.0
  0
LINE
  5
BC
330
1F
100
AcDbEntity
  8
1
  6
Continuous
 62
     4
100
AcDbLine
 10
192.999988554704
 20
-47.78232722666
 30
0.0
 11
193.999988554704
 21
-47.15732722666
 31
0.0
  0
LINE
  5
BD
330
1F
100
AcDbEntity
  8
1
  6
Continuous
 62
     4
100
AcDbLine
 10
188.999988554704
 20
-47.03232722666
 30
0.0
 11
188.187488554704
 21
-47.78232722666
 31
0.0
  0
LINE
  5
BE
330
1F
100
AcDbEntity
  8
1
  6
Continuous
 62
     4
100
AcDbLine
 10
189.812488554704
 20
-45.78232722666
 30
0.0
 11
188.999988554704
 21
-47.03232722666
 31
0.0
  0
LINE
  5
BF
330
1F
100
AcDbEntity
  8
1
  6
Continuous
 62
     4
100
AcDbLine
 10
190.124988554704
 20
-44.53232722666
 30
0.0
 11
189.812488554704
 21
-45.78232722666
 31
0.0
  0
LINE
  5
C0
330
1F
100
AcDbEntity
  8
1
  6
Continuous
 62
     4
100
AcDbLine
 10
187.312488554704
 20
-44.53232722666
 30
0.0
 11
190.124988554704
 21
-44.53232722666
 31
0.0
  0
LINE
  5
C1
330
1F
100
AcDbEntity
  8
1
  6
Continuous
 62
     4
100
AcDbLine
 10
182.749988554704
 20
-46.53232722666
 30
0.0
 11
182.749988554704
 21
-45.78232722666
 31
0.0
  0
LINE
  5
C2
330
1F
100
AcDbEntity
  8
1
  6
Continuous
 62
     4
100
AcDbLine
 10
183.749988554704
 20
-45.15732722666
 30
0.0
 11
185.687488554704
 21
-45.15732722666
 31
0.0
  0
LINE
  5
C3
330
1F
100
AcDbEntity
  8
1
  6
Continuous
 62
     4
100
AcDbLine
 10
184.687488554704
 20
-44.03232722666
 30
0.0
 11
184.999988554704
 21
-44.65732722666
 31
0.0
  0
LINE
  5
C4
330
1F
100
AcDbEntity
  8
1
  6
Continuous
 62
     4
100
AcDbLine
 10
184.124988554704
 20
-43.71982722666
 30
0.0
 11
185.499988554704
 21
-43.71982722666
 31
0.0
  0
LINE
  5
C5
330
1F
100
AcDbEntity
  8
1
  6
Continuous
 62
     4
100
AcDbLine
 10
184.437488554704
 20
-43.28232722666
 30
0.0
 11
183.874988554704
 21
-44.53232722666
 31
0.0
  0
LINE
  5
C6
330
1F
100
AcDbEntity
  8
1
  6
Continuous
 62
     4
100
AcDbLine
 10
182.624988554704
 20
-44.03232722666
 30
0.0
 11
182.999988554704
 21
-44.65732722666
 31
0.0
  0
LINE
  5
C7
330
1F
100
AcDbEntity
  8
1
  6
Continuous
 62
     4
100
AcDbLine
 10
182.187488554704
 20
-43.71982722666
 30
0.0
 11
183.437488554704
 21
-43.71982722666
 31
0.0
  0
LINE
  5
C8
330
1F
100
AcDbEntity
  8
1
  6
Continuous
 62
     4
100
AcDbLine
 10
182.499988554704
 20
-43.28232722666
 30
0.0
 11
181.749988554704
 21
-44.53232722666
 31
0.0
  0
LINE
  5
C9
330
1F
100
AcDbEntity
  8
1
  6
Continuous
 62
     4
100
AcDbLine
 10
183.749988554704
 20
-44.53232722666
 30
0.0
 11
183.749988554704
 21
-45.15732722666
 31
0.0
  0
LINE
  5
CA
330
1F
100
AcDbEntity
  8
1
  6
Continuous
 62
     4
100
AcDbLine
 10
185.687488554704
 20
-45.15732722666
 30
0.0
 11
185.687488554704
 21
-45.90732722666
 31
0.0
  0
LINE
  5
CB
330
1F
100
AcDbEntity
  8
1
  6
Continuous
 62
     4
100
AcDbLine
 10
181.749988554704
 20
-45.15732722666
 30
0.0
 11
183.749988554704
 21
-45.15732722666
 31
0.0
  0
LINE
  5
CC
330
1F
100
AcDbEntity
  8
1
  6
Continuous
 62
     4
100
AcDbLine
 10
181.749988554704
 20
-45.90732722666
 30
0.0
 11
181.749988554704
 21
-45.15732722666
 31
0.0
  0
LINE
  5
CD
330
1F
100
AcDbEntity
  8
1
  6
Continuous
 62
     4
100
AcDbLine
 10
184.812488554704
 20
-46.53232722666
 30
0.0
 11
182.749988554704
 21
-46.53232722666
 31
0.0
  0
LINE
  5
CE
330
1F
100
AcDbEntity
  8
1
  6
Continuous
 62
     4
100
AcDbLine
 10
184.812488554704
 20
-45.78232722666
 30
0.0
 11
184.812488554704
 21
-46.53232722666
 31
0.0
  0
LINE
  5
CF
330
1F
100
AcDbEntity
  8
1
  6
Continuous
 62
     4
100
AcDbLine
 10
182.749988554704
 20
-45.78232722666
 30
0.0
 11
184.812488554704
 21
-45.78232722666
 31
0.0
  0
LINE
  5
D0
330
1F
100
AcDbEntity
  8
1
  6
Continuous
 62
     4
100
AcDbLine
 10
182.749988554704
 20
-47.34482722666
 30
0.0
 11
182.749988554704
 21
-46.53232722666
 31
0.0
  0
LINE
  5
D1
330
1F
100
AcDbEntity
  8
1
  6
Continuous
 62
     4
100
AcDbLine
 10
182.749988554704
 20
-48.09482722666
 30
0.0
 11
184.812488554704
 21
-48.09482722666
 31
0.0
  0
LINE
  5
D2
330
1F
100
AcDbEntity
  8
1
  6
Continuous
 62
     4
100
AcDbLine
 10
182.749988554704
 20
-47.34482722666
 30
0.0
 11
182.749988554704
 21
-48.09482722666
 31
0.0
  0
LINE
  5
D3
330
1F
100
AcDbEntity
  8
1
  6
Continuous
 62
     4
100
AcDbLine
 10
184.812488554704
 20
-47.34482722666
 30
0.0
 11
182.749988554704
 21
-47.34482722666
 31
0.0
  0
LINE
  5
D4
330
1F
100
AcDbEntity
  8
1
  6
Continuous
 62
     4
100
AcDbLine
 10
184.812488554704
 20
-48.09482722666
 30
0.0
 11
184.812488554704
 21
-47.34482722666
 31
0.0
  0
LINE
  5
D5
330
1F
100
AcDbEntity
  8
1
  6
Continuous
 62
     4
100
AcDbLine
 10
178.562488554704
 20
-46.53232722666
 30
0.0
 11
178.874988554704
 21
-46.53232722666
 31
0.0
  0
LINE
  5
D6
330
1F
100
AcDbEntity
  8
1
  6
Continuous
 62
     4
100
AcDbLine
 10
178.874988554704
 20
-46.53232722666
 30
0.0
 11
180.687488554704
 21
-46.53232722666
 31
0.0
  0
LINE
  5
D7
330
1F
100
AcDbEntity
  8
1
  6
Continuous
 62
     4
100
AcDbLine
 10
180.249988554704
 20
-45.90732722666
 30
0.0
 11
179.999988554704
 21
-45.90732722666
 31
0.0
  0
LINE
  5
D8
330
1F
100
AcDbEntity
  8
1
  6
Continuous
 62
     4
100
AcDbLine
 10
180.374988554704
 20
-45.78232722666
 30
0.0
 11
180.249988554704
 21
-45.90732722666
 31
0.0
  0
LINE
  5
D9
330
1F
100
AcDbEntity
  8
1
  6
Continuous
 62
     4
100
AcDbLine
 10
180.374988554704
 20
-43.40732722666
 30
0.0
 11
180.374988554704
 21
-45.78232722666
 31
0.0
  0
LINE
  5
DA
330
1F
100
AcDbEntity
  8
1
  6
Continuous
 62
     4
100
AcDbLine
 10
179.437488554704
 20
-43.71982722666
 30
0.0
 11
179.437488554704
 21
-45.28232722666
 31
0.0
  0
LINE
  5
DB
330
1F
100
AcDbEntity
  8
1
  6
Continuous
 62
     4
100
AcDbLine
 10
176.749988554704
 20
-44.03232722666
 30
0.0
 11
176.624988554704
 21
-44.21982722666
 31
0.0
  0
LINE
  5
DC
330
1F
100
AcDbEntity
  8
1
  6
Continuous
 62
     4
100
AcDbLine
 10
177.062488554704
 20
-43.71982722666
 30
0.0
 11
176.749988554704
 21
-44.03232722666
 31
0.0
  0
LINE
  5
DD
330
1F
100
AcDbEntity
  8
1
  6
Continuous
 62
     4
100
AcDbLine
 10
177.312488554704
 20
-43.28232722666
 30
0.0
 11
177.062488554704
 21
-43.71982722666
 31
0.0
  0
LINE
  5
DE
330
1F
100
AcDbEntity
  8
1
  6
Continuous
 62
     4
100
AcDbLine
 10
177.062488554704
 20
-43.71982722666
 30
0.0
 11
178.437488554704
 21
-43.71982722666
 31
0.0
  0
LINE
  5
DF
330
1F
100
AcDbEntity
  8
1
  6
Continuous
 62
     4
100
AcDbLine
 10
176.749988554704
 20
-44.53232722666
 30
0.0
 11
178.749988554704
 21
-44.53232722666
 31
0.0
  0
LINE
  5
E0
330
1F
100
AcDbEntity
  8
1
  6
Continuous
 62
     4
100
AcDbLine
 10
178.437488554704
 20
-45.90732722666
 30
0.0
 11
178.312488554704
 21
-45.90732722666
 31
0.0
  0
LINE
  5
E1
330
1F
100
AcDbEntity
  8
1
  6
Continuous
 62
     4
100
AcDbLine
 10
178.437488554704
 20
-44.96982722666
 30
0.0
 11
178.437488554704
 21
-45.90732722666
 31
0.0
  0
LINE
  5
E2
330
1F
100
AcDbEntity
  8
1
  6
Continuous
 62
     4
100
AcDbLine
 10
177.062488554704
 20
-44.96982722666
 30
0.0
 11
178.437488554704
 21
-44.96982722666
 31
0.0
  0
LINE
  5
E3
330
1F
100
AcDbEntity
  8
1
  6
Continuous
 62
     4
100
AcDbLine
 10
177.062488554704
 20
-45.90732722666
 30
0.0
 11
177.062488554704
 21
-44.96982722666
 31
0.0
  0
LINE
  5
E4
330
1F
100
AcDbEntity
  8
1
  6
Continuous
 62
     4
100
AcDbLine
 10
177.749988554704
 20
-46.09482722666
 30
0.0
 11
177.749988554704
 21
-43.28232722666
 31
0.0
  0
LINE
  5
E5
330
1F
100
AcDbEntity
  8
1
  6
Continuous
 62
     4
100
AcDbLine
 10
178.874988554704
 20
-46.53232722666
 30
0.0
 11
178.874988554704
 21
-45.78232722666
 31
0.0
  0
LINE
  5
E6
330
1F
100
AcDbEntity
  8
1
  6
Continuous
 62
     4
100
AcDbLine
 10
180.374988554704
 20
-47.96982722666
 30
0.0
 11
180.687488554704
 21
-48.09482722666
 31
0.0
  0
LINE
  5
E7
330
1F
100
AcDbEntity
  8
1
  6
Continuous
 62
     4
100
AcDbLine
 10
179.812488554704
 20
-47.65732722666
 30
0.0
 11
180.374988554704
 21
-47.96982722666
 31
0.0
  0
LINE
  5
E8
330
1F
100
AcDbEntity
  8
1
  6
Continuous
 62
     4
100
AcDbLine
 10
179.437488554704
 20
-47.34482722666
 30
0.0
 11
179.812488554704
 21
-47.65732722666
 31
0.0
  0
LINE
  5
E9
330
1F
100
AcDbEntity
  8
1
  6
Continuous
 62
     4
100
AcDbLine
 10
179.124988554704
 20
-47.03232722666
 30
0.0
 11
179.437488554704
 21
-47.34482722666
 31
0.0
  0
LINE
  5
EA
330
1F
100
AcDbEntity
  8
1
  6
Continuous
 62
     4
100
AcDbLine
 10
178.874988554704
 20
-46.71982722666
 30
0.0
 11
179.124988554704
 21
-47.03232722666
 31
0.0
  0
LINE
  5
EB
330
1F
100
AcDbEntity
  8
1
  6
Continuous
 62
     4
100
AcDbLine
 10
180.249988554704
 20
-46.84482722666
 30
0.0
 11
179.437488554704
 21
-47.34482722666
 31
0.0
  0
LINE
  5
EC
330
1F
100
AcDbEntity
  8
1
  6
Continuous
 62
     4
100
AcDbLine
 10
176.749988554704
 20
-46.53232722666
 30
0.0
 11
178.562488554704
 21
-46.53232722666
 31
0.0
  0
LINE
  5
ED
330
1F
100
AcDbEntity
  8
1
  6
Continuous
 62
     4
100
AcDbLine
 10
176.937488554704
 20
-47.65732722666
 30
0.0
 11
176.624988554704
 21
-47.78232722666
 31
0.0
  0
LINE
  5
EE
330
1F
100
AcDbEntity
  8
1
  6
Continuous
 62
     4
100
AcDbLine
 10
177.187488554704
 20
-47.46982722666
 30
0.0
 11
176.937488554704
 21
-47.65732722666
 31
0.0
  0
LINE
  5
EF
330
1F
100
AcDbEntity
  8
1
  6
Continuous
 62
     4
100
AcDbLine
 10
177.749988554704
 20
-47.15732722666
 30
0.0
 11
177.187488554704
 21
-47.46982722666
 31
0.0
  0
LINE
  5
F0
330
1F
100
AcDbEntity
  8
1
  6
Continuous
 62
     4
100
AcDbLine
 10
178.187488554704
 20
-46.84482722666
 30
0.0
 11
177.749988554704
 21
-47.15732722666
 31
0.0
  0
LINE
  5
F1
330
1F
100
AcDbEntity
  8
1
  6
Continuous
 62
     4
100
AcDbLine
 10
178.562488554704
 20
-46.53232722666
 30
0.0
 11
178.187488554704
 21
-46.84482722666
 31
0.0
  0
LINE
  5
F2
330
1F
100
AcDbEntity
  8
1
  6
Continuous
 62
     4
100
AcDbLine
 10
178.187488554704
 20
-47.78232722666
 30
0.0
 11
178.187488554704
 21
-46.84482722666
 31
0.0
  0
LINE
  5
F3
330
1F
100
AcDbEntity
  8
1
  6
Continuous
 62
     4
100
AcDbLine
 10
177.312488554704
 20
-48.09482722666
 30
0.0
 11
178.999988554704
 21
-47.46982722666
 31
0.0
  0
LINE
  5
F4
330
1F
100
AcDbEntity
  8
1
  6
Continuous
 62
     4
100
AcDbLine
 10
173.749988554704
 20
-48.09482722666
 30
0.0
 11
175.374988554704
 21
-48.09482722666
 31
0.0
  0
LINE
  5
F5
330
1F
100
AcDbEntity
  8
1
  6
Continuous
 62
     4
100
AcDbLine
 10
173.749988554704
 20
-45.15732722666
 30
0.0
 11
174.687488554704
 21
-45.15732722666
 31
0.0
  0
LINE
  5
F6
330
1F
100
AcDbEntity
  8
1
  6
Continuous
 62
     4
100
AcDbLine
 10
175.374988554704
 20
-45.28232722666
 30
0.0
 11
175.937488554704
 21
-45.78232722666
 31
0.0
  0
LINE
  5
F7
330
1F
100
AcDbEntity
  8
1
  6
Continuous
 62
     4
100
AcDbLine
 10
174.437488554704
 20
-44.21982722666
 30
0.0
 11
175.374988554704
 21
-45.28232722666
 31
0.0
  0
LINE
  5
F8
330
1F
100
AcDbEntity
  8
1
  6
Continuous
 62
     4
100
AcDbLine
 10
173.749988554704
 20
-43.28232722666
 30
0.0
 11
174.437488554704
 21
-44.21982722666
 31
0.0
  0
LINE
  5
F9
330
1F
100
AcDbEntity
  8
1
  6
Continuous
 62
     4
100
AcDbLine
 10
172.999988554704
 20
-44.21982722666
 30
0.0
 11
173.749988554704
 21
-43.28232722666
 31
0.0
  0
LINE
  5
FA
330
1F
100
AcDbEntity
  8
1
  6
Continuous
 62
     4
100
AcDbLine
 10
172.062488554704
 20
-45.28232722666
 30
0.0
 11
172.999988554704
 21
-44.21982722666
 31
0.0
  0
LINE
  5
FB
330
1F
100
AcDbEntity
  8
1
  6
Continuous
 62
     4
100
AcDbLine
 10
171.499988554704
 20
-45.78232722666
 30
0.0
 11
172.062488554704
 21
-45.28232722666
 31
0.0
  0
LINE
  5
FC
330
1F
100
AcDbEntity
  8
1
  6
Continuous
 62
     4
100
AcDbLine
 10
174.437488554704
 20
-47.46982722666
 30
0.0
 11
174.687488554704
 21
-46.71982722666
 31
0.0
  0
LINE
  5
FD
330
1F
100
AcDbEntity
  8
1
  6
Continuous
 62
     4
100
AcDbLine
 10
172.749988554704
 20
-46.71982722666
 30
0.0
 11
172.999988554704
 21
-47.46982722666
 31
0.0
  0
LINE
  5
FE
330
1F
100
AcDbEntity
  8
1
  6
Continuous
 62
     4
100
AcDbLine
 10
175.124988554704
 20
-46.09482722666
 30
0.0
 11
172.312488554704
 21
-46.09482722666
 31
0.0
  0
LINE
  5
FF
330
1F
100
AcDbEntity
  8
1
  6
Continuous
 62
     4
100
AcDbLine
 10
172.749988554704
 20
-45.15732722666
 30
0.0
 11
173.749988554704
 21
-45.15732722666
 31
0.0
  0
LINE
  5
100
330
1F
100
AcDbEntity
  8
1
  6
Continuous
 62
     4
100
AcDbLine
 10
173.749988554704
 20
-48.09482722666
 30
0.0
 11
173.749988554704
 21
-45.15732722666
 31
0.0
  0
LINE
  5
101
330
1F
100
AcDbEntity
  8
1
  6
Continuous
 62
     4
100
AcDbLine
 10
171.937488554704
 20
-48.09482722666
 30
0.0
 11
173.749988554704
 21
-48.09482722666
 31
0.0
  0
LINE
  5
102
330
1F
100
AcDbEntity
  8
1
  6
Continuous
 62
     4
100
AcDbLine
 10
167.624988554704
 20
-46.53232722666
 30
0.0
 11
169.687488554704
 21
-46.53232722666
 31
0.0
  0
LINE
  5
103
330
1F
100
AcDbEntity
  8
1
  6
Continuous
 62
     4
100
AcDbLine
 10
167.624988554704
 20
-48.28232722666
 30
0.0
 11
167.624988554704
 21
-46.53232722666
 31
0.0
  0
LINE
  5
104
330
1F
100
AcDbEntity
  8
1
  6
Continuous
 62
     4
100
AcDbLine
 10
169.687488554704
 20
-48.28232722666
 30
0.0
 11
167.624988554704
 21
-48.28232722666
 31
0.0
  0
LINE
  5
105
330
1F
100
AcDbEntity
  8
1
  6
Continuous
 62
     4
100
AcDbLine
 10
169.687488554704
 20
-46.53232722666
 30
0.0
 11
169.687488554704
 21
-48.28232722666
 31
0.0
  0
LINE
  5
106
330
1F
100
AcDbEntity
  8
1
  6
Continuous
 62
     4
100
AcDbLine
 10
167.749988554704
 20
-45.46982722666
 30
0.0
 11
169.562488554704
 21
-45.46982722666
 31
0.0
  0
LINE
  5
107
330
1F
100
AcDbEntity
  8
1
  6
Continuous
 62
     4
100
AcDbLine
 10
168.749988554704
 20
-43.40732722666
 30
0.0
 11
170.937488554704
 21
-45.90732722666
 31
0.0
  0
LINE
  5
108
330
1F
100
AcDbEntity
  8
1
  6
Continuous
 62
     4
100
AcDbLine
 10
166.499988554704
 20
-46.21982722666
 30
0.0
 11
168.749988554704
 21
-43.40732722666
 31
0.0
  0
LINE
  5
109
330
1F
100
AcDbEntity
  8
1
  6
Continuous
 62
     4
100
AcDbLine
 10
162.624988554704
 20
-45.15732722666
 30
0.0
 11
163.187488554704
 21
-45.15732722666
 31
0.0
  0
LINE
  5
10A
330
1F
100
AcDbEntity
  8
1
  6
Continuous
 62
     4
100
AcDbLine
 10
165.812488554704
 20
-48.28232722666
 30
0.0
 11
165.499988554704
 21
-48.28232722666
 31
0.0
  0
LINE
  5
10B
330
1F
100
AcDbEntity
  8
1
  6
Continuous
 62
     4
100
AcDbLine
 10
165.812488554704
 20
-43.71982722666
 30
0.0
 11
165.812488554704
 21
-48.28232722666
 31
0.0
  0
LINE
  5
10C
330
1F
100
AcDbEntity
  8
1
  6
Continuous
 62
     4
100
AcDbLine
 10
163.874988554704
 20
-43.71982722666
 30
0.0
 11
165.812488554704
 21
-43.71982722666
 31
0.0
  0
LINE
  5
10D
330
1F
100
AcDbEntity
  8
1
  6
Continuous
 62
     4
100
AcDbLine
 10
163.874988554704
 20
-48.28232722666
 30
0.0
 11
163.874988554704
 21
-43.71982722666
 31
0.0
  0
LINE
  5
10E
330
1F
100
AcDbEntity
  8
1
  6
Continuous
 62
     4
100
AcDbLine
 10
165.374988554704
 20
-44.65732722666
 30
0.0
 11
164.249988554704
 21
-44.65732722666
 31
0.0
  0
LINE
  5
10F
330
1F
100
AcDbEntity
  8
1
  6
Continuous
 62
     4
100
AcDbLine
 10
164.437488554704
 20
-45.46982722666
 30
0.0
 11
164.437488554704
 21
-46.71982722666
 31
0.0
  0
LINE
  5
110
330
1F
100
AcDbEntity
  8
1
  6
Continuous
 62
     4
100
AcDbLine
 10
165.249988554704
 20
-45.46982722666
 30
0.0
 11
164.437488554704
 21
-45.46982722666
 31
0.0
  0
LINE
  5
111
330
1F
100
AcDbEntity
  8
1
  6
Continuous
 62
     4
100
AcDbLine
 10
165.249988554704
 20
-46.71982722666
 30
0.0
 11
165.249988554704
 21
-45.46982722666
 31
0.0
  0
LINE
  5
112
330
1F
100
AcDbEntity
  8
1
  6
Continuous
 62
     4
100
AcDbLine
 10
164.437488554704
 20
-46.71982722666
 30
0.0
 11
165.249988554704
 21
-46.71982722666
 31
0.0
  0
LINE
  5
113
330
1F
100
AcDbEntity
  8
1
  6
Continuous
 62
     4
100
AcDbLine
 10
162.624988554704
 20
-45.15732722666
 30
0.0
 11
162.624988554704
 21
-47.65732722666
 31
0.0
  0
LINE
  5
114
330
1F
100
AcDbEntity
  8
1
  6
Continuous
 62
     4
100
AcDbLine
 10
161.937488554704
 20
-46.53232722666
 30
0.0
 11
162.062488554704
 21
-47.15732722666
 31
0.0
  0
LINE
  5
115
330
1F
100
AcDbEntity
  8
1
  6
Continuous
 62
     4
100
AcDbLine
 10
162.062488554704
 20
-44.65732722666
 30
0.0
 11
161.499988554704
 21
-45.59482722666
 31
0.0
  0
LINE
  5
116
330
1F
100
AcDbEntity
  8
1
  6
Continuous
 62
     4
100
AcDbLine
 10
162.624988554704
 20
-43.59482722666
 30
0.0
 11
162.062488554704
 21
-44.65732722666
 31
0.0
  0
LINE
  5
117
330
1F
100
AcDbEntity
  8
1
  6
Continuous
 62
     4
100
AcDbLine
 10
163.437488554704
 20
-44.53232722666
 30
0.0
 11
162.624988554704
 21
-43.59482722666
 31
0.0
  0
LINE
  5
118
330
1F
100
AcDbEntity
  8
1
  6
Continuous
 62
     4
100
AcDbLine
 10
162.062488554704
 20
-45.15732722666
 30
0.0
 11
162.624988554704
 21
-45.15732722666
 31
0.0
  0
LINE
  5
119
330
1F
100
AcDbEntity
  8
1
  6
Continuous
 62
     4
100
AcDbLine
 10
163.312488554704
 20
-45.90732722666
 30
0.0
 11
161.749988554704
 21
-45.90732722666
 31
0.0
  0
LINE
  5
11A
330
1F
100
AcDbEntity
  8
1
  6
Continuous
 62
     4
100
AcDbLine
 10
163.187488554704
 20
-47.03232722666
 30
0.0
 11
163.312488554704
 21
-46.40732722666
 31
0.0
  0
LINE
  5
11B
330
1F
100
AcDbEntity
  8
1
  6
Continuous
 62
     4
100
AcDbLine
 10
161.749988554704
 20
-47.96982722666
 30
0.0
 11
163.312488554704
 21
-47.46982722666
 31
0.0
  0
LINE
  5
11C
330
1F
100
AcDbEntity
  8
1
  6
Continuous
 62
     4
100
AcDbLine
 10
200.749988554704
 20
-36.82732722666
 30
0.0
 11
200.749988554704
 21
-38.07732722666
 31
0.0
  0
LINE
  5
11D
330
1F
100
AcDbEntity
  8
1
  6
Continuous
 62
     4
100
AcDbLine
 10
200.624988554704
 20
-36.07732722666
 30
0.0
 11
200.749988554704
 21
-36.82732722666
 31
0.0
  0
LINE
  5
11E
330
1F
100
AcDbEntity
  8
1
  6
Continuous
 62
     4
100
AcDbLine
 10
200.374988554704
 20
-35.57732722666
 30
0.0
 11
200.624988554704
 21
-36.07732722666
 31
0.0
  0
LINE
  5
11F
330
1F
100
AcDbEntity
  8
1
  6
Continuous
 62
     4
100
AcDbLine
 10
200.124988554704
 20
-35.32732722666
 30
0.0
 11
200.374988554704
 21
-35.57732722666
 31
0.0
  0
LINE
  5
120
330
1F
100
AcDbEntity
  8
1
  6
Continuous
 62
     4
100
AcDbLine
 10
199.749988554704
 20
-35.07732722666
 30
0.0
 11
200.124988554704
 21
-35.32732722666
 31
0.0
  0
LINE
  5
121
330
1F
100
AcDbEntity
  8
1
  6
Continuous
 62
     4
100
AcDbLine
 10
199.374988554704
 20
-34.95232722666
 30
0.0
 11
199.749988554704
 21
-35.07732722666
 31
0.0
  0
LINE
  5
122
330
1F
100
AcDbEntity
  8
1
  6
Continuous
 62
     4
100
AcDbLine
 10
199.124988554704
 20
-34.95232722666
 30
0.0
 11
199.374988554704
 21
-34.95232722666
 31
0.0
  0
LINE
  5
123
330
1F
100
AcDbEntity
  8
1
  6
Continuous
 62
     4
100
AcDbLine
 10
198.749988554704
 20
-35.07732722666
 30
0.0
 11
199.124988554704
 21
-34.95232722666
 31
0.0
  0
LINE
  5
124
330
1F
100
AcDbEntity
  8
1
  6
Continuous
 62
     4
100
AcDbLine
 10
198.374988554704
 20
-35.32732722666
 30
0.0
 11
198.749988554704
 21
-35.07732722666
 31
0.0
  0
LINE
  5
125
330
1F
100
AcDbEntity
  8
1
  6
Continuous
 62
     4
100
AcDbLine
 10
198.124988554704
 20
-35.57732722666
 30
0.0
 11
198.374988554704
 21
-35.32732722666
 31
0.0
  0
LINE
  5
126
330
1F
100
AcDbEntity
  8
1
  6
Continuous
 62
     4
100
AcDbLine
 10
197.874988554704
 20
-36.07732722666
 30
0.0
 11
198.124988554704
 21
-35.57732722666
 31
0.0
  0
LINE
  5
127
330
1F
100
AcDbEntity
  8
1
  6
Continuous
 62
     4
100
AcDbLine
 10
197.749988554704
 20
-36.82732722666
 30
0.0
 11
197.874988554704
 21
-36.07732722666
 31
0.0
  0
LINE
  5
128
330
1F
100
AcDbEntity
  8
1
  6
Continuous
 62
     4
100
AcDbLine
 10
197.749988554704
 20
-38.07732722666
 30
0.0
 11
197.749988554704
 21
-36.82732722666
 31
0.0
  0
LINE
  5
129
330
1F
100
AcDbEntity
  8
1
  6
Continuous
 62
     4
100
AcDbLine
 10
197.874988554704
 20
-38.82732722666
 30
0.0
 11
197.749988554704
 21
-38.07732722666
 31
0.0
  0
LINE
  5
12A
330
1F
100
AcDbEntity
  8
1
  6
Continuous
 62
     4
100
AcDbLine
 10
198.124988554704
 20
-39.32732722666
 30
0.0
 11
197.874988554704
 21
-38.82732722666
 31
0.0
  0
LINE
  5
12B
330
1F
100
AcDbEntity
  8
1
  6
Continuous
 62
     4
100
AcDbLine
 10
198.374988554704
 20
-39.57732722666
 30
0.0
 11
198.124988554704
 21
-39.32732722666
 31
0.0
  0
LINE
  5
12C
330
1F
100
AcDbEntity
  8
1
  6
Continuous
 62
     4
100
AcDbLine
 10
198.749988554704
 20
-39.82732722666
 30
0.0
 11
198.374988554704
 21
-39.57732722666
 31
0.0
  0
LINE
  5
12D
330
1F
100
AcDbEntity
  8
1
  6
Continuous
 62
     4
100
AcDbLine
 10
199.124988554704
 20
-39.95232722666
 30
0.0
 11
198.749988554704
 21
-39.82732722666
 31
0.0
  0
LINE
  5
12E
330
1F
100
AcDbEntity
  8
1
  6
Continuous
 62
     4
100
AcDbLine
 10
199.374988554704
 20
-39.95232722666
 30
0.0
 11
199.124988554704
 21
-39.95232722666
 31
0.0
  0
LINE
  5
12F
330
1F
100
AcDbEntity
  8
1
  6
Continuous
 62
     4
100
AcDbLine
 10
199.749988554704
 20
-39.82732722666
 30
0.0
 11
199.374988554704
 21
-39.95232722666
 31
0.0
  0
LINE
  5
130
330
1F
100
AcDbEntity
  8
1
  6
Continuous
 62
     4
100
AcDbLine
 10
200.124988554704
 20
-39.57732722666
 30
0.0
 11
199.749988554704
 21
-39.82732722666
 31
0.0
  0
LINE
  5
131
330
1F
100
AcDbEntity
  8
1
  6
Continuous
 62
     4
100
AcDbLine
 10
200.374988554704
 20
-39.32732722666
 30
0.0
 11
200.124988554704
 21
-39.57732722666
 31
0.0
  0
LINE
  5
132
330
1F
100
AcDbEntity
  8
1
  6
Continuous
 62
     4
100
AcDbLine
 10
200.624988554704
 20
-38.82732722666
 30
0.0
 11
200.374988554704
 21
-39.32732722666
 31
0.0
  0
LINE
  5
133
330
1F
100
AcDbEntity
  8
1
  6
Continuous
 62
     4
100
AcDbLine
 10
200.749988554704
 20
-38.07732722666
 30
0.0
 11
200.624988554704
 21
-38.82732722666
 31
0.0
  0
LINE
  5
134
330
1F
100
AcDbEntity
  8
1
  6
Continuous
 62
     4
100
AcDbLine
 10
195.499988554704
 20
-37.95232722666
 30
0.0
 11
195.499988554704
 21
-39.95232722666
 31
0.0
  0
LINE
  5
135
330
1F
100
AcDbEntity
  8
1
  6
Continuous
 62
     4
100
AcDbLine
 10
193.249988554704
 20
-38.95232722666
 30
0.0
 11
196.249988554704
 21
-38.95232722666
 31
0.0
  0
LINE
  5
136
330
1F
100
AcDbEntity
  8
1
  6
Continuous
 62
     4
100
AcDbLine
 10
195.499988554704
 20
-34.95232722666
 30
0.0
 11
193.249988554704
 21
-38.95232722666
 31
0.0
  0
LINE
  5
137
330
1F
100
AcDbEntity
  8
1
  6
Continuous
 62
     4
100
AcDbLine
 10
188.749988554704
 20
-39.95232722666
 30
0.0
 11
191.749988554704
 21
-39.95232722666
 31
0.0
  0
LINE
  5
138
330
1F
100
AcDbEntity
  8
1
  6
Continuous
 62
     4
100
AcDbLine
 10
191.499988554704
 20
-36.70232722666
 30
0.0
 11
188.749988554704
 21
-39.95232722666
 31
0.0
  0
LINE
  5
139
330
1F
100
AcDbEntity
  8
1
  6
Continuous
 62
     4
100
AcDbLine
 10
191.749988554704
 20
-36.20232722666
 30
0.0
 11
191.499988554704
 21
-36.70232722666
 31
0.0
  0
LINE
  5
13A
330
1F
100
AcDbEntity
  8
1
  6
Continuous
 62
     4
100
AcDbLine
 10
191.749988554704
 20
-35.70232722666
 30
0.0
 11
191.749988554704
 21
-36.20232722666
 31
0.0
  0
LINE
  5
13B
330
1F
100
AcDbEntity
  8
1
  6
Continuous
 62
     4
100
AcDbLine
 10
191.499988554704
 20
-35.32732722666
 30
0.0
 11
191.749988554704
 21
-35.70232722666
 31
0.0
  0
LINE
  5
13C
330
1F
100
AcDbEntity
  8
1
  6
Continuous
 62
     4
100
AcDbLine
 10
191.124988554704
 20
-35.07732722666
 30
0.0
 11
191.499988554704
 21
-35.32732722666
 31
0.0
  0
LINE
  5
13D
330
1F
100
AcDbEntity
  8
1
  6
Continuous
 62
     4
100
AcDbLine
 10
190.624988554704
 20
-34.95232722666
 30
0.0
 11
191.124988554704
 21
-35.07732722666
 31
0.0
  0
LINE
  5
13E
330
1F
100
AcDbEntity
  8
1
  6
Continuous
 62
     4
100
AcDbLine
 10
189.874988554704
 20
-34.95232722666
 30
0.0
 11
190.624988554704
 21
-34.95232722666
 31
0.0
  0
LINE
  5
13F
330
1F
100
AcDbEntity
  8
1
  6
Continuous
 62
     4
100
AcDbLine
 10
189.374988554704
 20
-35.07732722666
 30
0.0
 11
189.874988554704
 21
-34.95232722666
 31
0.0
  0
LINE
  5
140
330
1F
100
AcDbEntity
  8
1
  6
Continuous
 62
     4
100
AcDbLine
 10
188.999988554704
 20
-35.32732722666
 30
0.0
 11
189.374988554704
 21
-35.07732722666
 31
0.0
  0
LINE
  5
141
330
1F
100
AcDbEntity
  8
1
  6
Continuous
 62
     4
100
AcDbLine
 10
188.749988554704
 20
-35.70232722666
 30
0.0
 11
188.999988554704
 21
-35.32732722666
 31
0.0
  0
LINE
  5
142
330
1F
100
AcDbEntity
  8
1
  6
Continuous
 62
     4
100
AcDbLine
 10
184.249988554704
 20
-39.95232722666
 30
0.0
 11
187.249988554704
 21
-39.95232722666
 31
0.0
  0
LINE
  5
143
330
1F
100
AcDbEntity
  8
1
  6
Continuous
 62
     4
100
AcDbLine
 10
186.999988554704
 20
-36.70232722666
 30
0.0
 11
184.249988554704
 21
-39.95232722666
 31
0.0
  0
LINE
  5
144
330
1F
100
AcDbEntity
  8
1
  6
Continuous
 62
     4
100
AcDbLine
 10
187.249988554704
 20
-36.20232722666
 30
0.0
 11
186.999988554704
 21
-36.70232722666
 31
0.0
  0
LINE
  5
145
330
1F
100
AcDbEntity
  8
1
  6
Continuous
 62
     4
100
AcDbLine
 10
187.249988554704
 20
-35.70232722666
 30
0.0
 11
187.249988554704
 21
-36.20232722666
 31
0.0
  0
LINE
  5
146
330
1F
100
AcDbEntity
  8
1
  6
Continuous
 62
     4
100
AcDbLine
 10
186.999988554704
 20
-35.32732722666
 30
0.0
 11
187.249988554704
 21
-35.70232722666
 31
0.0
  0
LINE
  5
147
330
1F
100
AcDbEntity
  8
1
  6
Continuous
 62
     4
100
AcDbLine
 10
186.624988554704
 20
-35.07732722666
 30
0.0
 11
186.999988554704
 21
-35.32732722666
 31
0.0
  0
LINE
  5
148
330
1F
100
AcDbEntity
  8
1
  6
Continuous
 62
     4
100
AcDbLine
 10
186.124988554704
 20
-34.95232722666
 30
0.0
 11
186.624988554704
 21
-35.07732722666
 31
0.0
  0
LINE
  5
149
330
1F
100
AcDbEntity
  8
1
  6
Continuous
 62
     4
100
AcDbLine
 10
185.374988554704
 20
-34.95232722666
 30
0.0
 11
186.124988554704
 21
-34.95232722666
 31
0.0
  0
LINE
  5
14A
330
1F
100
AcDbEntity
  8
1
  6
Continuous
 62
     4
100
AcDbLine
 10
184.874988554704
 20
-35.07732722666
 30
0.0
 11
185.374988554704
 21
-34.95232722666
 31
0.0
  0
LINE
  5
14B
330
1F
100
AcDbEntity
  8
1
  6
Continuous
 62
     4
100
AcDbLine
 10
184.499988554704
 20
-35.32732722666
 30
0.0
 11
184.874988554704
 21
-35.07732722666
 31
0.0
  0
LINE
  5
14C
330
1F
100
AcDbEntity
  8
1
  6
Continuous
 62
     4
100
AcDbLine
 10
184.249988554704
 20
-35.70232722666
 30
0.0
 11
184.499988554704
 21
-35.32732722666
 31
0.0
  0
LINE
  5
14D
330
1F
100
AcDbEntity
  8
1
  6
Continuous
 62
     4
100
AcDbLine
 10
175.499988554704
 20
-37.20232722666
 30
0.0
 11
175.499988554704
 21
-34.95232722666
 31
0.0
  0
LINE
  5
14E
330
1F
100
AcDbEntity
  8
1
  6
Continuous
 62
     4
100
AcDbLine
 10
177.874988554704
 20
-37.07732722666
 30
0.0
 11
177.499988554704
 21
-37.20232722666
 31
0.0
  0
LINE
  5
14F
330
1F
100
AcDbEntity
  8
1
  6
Continuous
 62
     4
100
AcDbLine
 10
178.249988554704
 20
-36.82732722666
 30
0.0
 11
177.874988554704
 21
-37.07732722666
 31
0.0
  0
LINE
  5
150
330
1F
100
AcDbEntity
  8
1
  6
Continuous
 62
     4
100
AcDbLine
 10
178.499988554704
 20
-36.32732722666
 30
0.0
 11
178.249988554704
 21
-36.82732722666
 31
0.0
  0
LINE
  5
151
330
1F
100
AcDbEntity
  8
1
  6
Continuous
 62
     4
100
AcDbLine
 10
178.499988554704
 20
-35.95232722666
 30
0.0
 11
178.499988554704
 21
-36.32732722666
 31
0.0
  0
LINE
  5
152
330
1F
100
AcDbEntity
  8
1
  6
Continuous
 62
     4
100
AcDbLine
 10
178.374988554704
 20
-35.45232722666
 30
0.0
 11
178.499988554704
 21
-35.95232722666
 31
0.0
  0
LINE
  5
153
330
1F
100
AcDbEntity
  8
1
  6
Continuous
 62
     4
100
AcDbLine
 10
177.999988554704
 20
-35.07732722666
 30
0.0
 11
178.374988554704
 21
-35.45232722666
 31
0.0
  0
LINE
  5
154
330
1F
100
AcDbEntity
  8
1
  6
Continuous
 62
     4
100
AcDbLine
 10
177.374988554704
 20
-34.95232722666
 30
0.0
 11
177.999988554704
 21
-35.07732722666
 31
0.0
  0
LINE
  5
155
330
1F
100
AcDbEntity
  8
1
  6
Continuous
 62
     4
100
AcDbLine
 10
175.499988554704
 20
-34.95232722666
 30
0.0
 11
177.374988554704
 21
-34.95232722666
 31
0.0
  0
LINE
  5
156
330
1F
100
AcDbEntity
  8
1
  6
Continuous
 62
     4
100
AcDbLine
 10
175.499988554704
 20
-39.95232722666
 30
0.0
 11
175.499988554704
 21
-37.20232722666
 31
0.0
  0
LINE
  5
157
330
1F
100
AcDbEntity
  8
1
  6
Continuous
 62
     4
100
AcDbLine
 10
177.749988554704
 20
-39.95232722666
 30
0.0
 11
175.499988554704
 21
-39.95232722666
 31
0.0
  0
LINE
  5
158
330
1F
100
AcDbEntity
  8
1
  6
Continuous
 62
     4
100
AcDbLine
 10
178.249988554704
 20
-39.70232722666
 30
0.0
 11
177.749988554704
 21
-39.95232722666
 31
0.0
  0
LINE
  5
159
330
1F
100
AcDbEntity
  8
1
  6
Continuous
 62
     4
100
AcDbLine
 10
178.499988554704
 20
-39.45232722666
 30
0.0
 11
178.249988554704
 21
-39.70232722666
 31
0.0
  0
LINE
  5
15A
330
1F
100
AcDbEntity
  8
1
  6
Continuous
 62
     4
100
AcDbLine
 10
178.749988554704
 20
-38.95232722666
 30
0.0
 11
178.499988554704
 21
-39.45232722666
 31
0.0
  0
LINE
  5
15B
330
1F
100
AcDbEntity
  8
1
  6
Continuous
 62
     4
100
AcDbLine
 10
178.749988554704
 20
-38.32732722666
 30
0.0
 11
178.749988554704
 21
-38.95232722666
 31
0.0
  0
LINE
  5
15C
330
1F
100
AcDbEntity
  8
1
  6
Continuous
 62
     4
100
AcDbLine
 10
178.499988554704
 20
-37.70232722666
 30
0.0
 11
178.749988554704
 21
-38.32732722666
 31
0.0
  0
LINE
  5
15D
330
1F
100
AcDbEntity
  8
1
  6
Continuous
 62
     4
100
AcDbLine
 10
178.249988554704
 20
-37.45232722666
 30
0.0
 11
178.499988554704
 21
-37.70232722666
 31
0.0
  0
LINE
  5
15E
330
1F
100
AcDbEntity
  8
1
  6
Continuous
 62
     4
100
AcDbLine
 10
177.749988554704
 20
-37.20232722666
 30
0.0
 11
178.249988554704
 21
-37.45232722666
 31
0.0
  0
LINE
  5
15F
330
1F
100
AcDbEntity
  8
1
  6
Continuous
 62
     4
100
AcDbLine
 10
177.499988554704
 20
-37.20232722666
 30
0.0
 11
177.749988554704
 21
-37.20232722666
 31
0.0
  0
LINE
  5
160
330
1F
100
AcDbEntity
  8
1
  6
Continuous
 62
     4
100
AcDbLine
 10
175.499988554704
 20
-37.20232722666
 30
0.0
 11
177.499988554704
 21
-37.20232722666
 31
0.0
  0
LINE
  5
161
330
1F
100
AcDbEntity
  8
1
  6
Continuous
 62
     4
100
AcDbLine
 10
166.749988554704
 20
-39.57732722666
 30
0.0
 11
166.499988554704
 21
-39.32732722666
 31
0.0
  0
LINE
  5
162
330
1F
100
AcDbEntity
  8
1
  6
Continuous
 62
     4
100
AcDbLine
 10
167.249988554704
 20
-39.82732722666
 30
0.0
 11
166.749988554704
 21
-39.57732722666
 31
0.0
  0
LINE
  5
163
330
1F
100
AcDbEntity
  8
1
  6
Continuous
 62
     4
100
AcDbLine
 10
167.874988554704
 20
-39.95232722666
 30
0.0
 11
167.249988554704
 21
-39.82732722666
 31
0.0
  0
LINE
  5
164
330
1F
100
AcDbEntity
  8
1
  6
Continuous
 62
     4
100
AcDbLine
 10
168.624988554704
 20
-39.95232722666
 30
0.0
 11
167.874988554704
 21
-39.95232722666
 31
0.0
  0
LINE
  5
165
330
1F
100
AcDbEntity
  8
1
  6
Continuous
 62
     4
100
AcDbLine
 10
169.249988554704
 20
-39.82732722666
 30
0.0
 11
168.624988554704
 21
-39.95232722666
 31
0.0
  0
LINE
  5
166
330
1F
100
AcDbEntity
  8
1
  6
Continuous
 62
     4
100
AcDbLine
 10
169.624988554704
 20
-39.57732722666
 30
0.0
 11
169.249988554704
 21
-39.82732722666
 31
0.0
  0
LINE
  5
167
330
1F
100
AcDbEntity
  8
1
  6
Continuous
 62
     4
100
AcDbLine
 10
169.874988554704
 20
-39.20232722666
 30
0.0
 11
169.624988554704
 21
-39.57732722666
 31
0.0
  0
LINE
  5
168
330
1F
100
AcDbEntity
  8
1
  6
Continuous
 62
     4
100
AcDbLine
 10
169.999988554704
 20
-38.82732722666
 30
0.0
 11
169.874988554704
 21
-39.20232722666
 31
0.0
  0
LINE
  5
169
330
1F
100
AcDbEntity
  8
1
  6
Continuous
 62
     4
100
AcDbLine
 10
169.999988554704
 20
-38.57732722666
 30
0.0
 11
169.999988554704
 21
-38.82732722666
 31
0.0
  0
LINE
  5
16A
330
1F
100
AcDbEntity
  8
1
  6
Continuous
 62
     4
100
AcDbLine
 10
169.874988554704
 20
-38.20232722666
 30
0.0
 11
169.999988554704
 21
-38.57732722666
 31
0.0
  0
LINE
  5
16B
330
1F
100
AcDbEntity
  8
1
  6
Continuous
 62
     4
100
AcDbLine
 10
169.624988554704
 20
-37.82732722666
 30
0.0
 11
169.874988554704
 21
-38.20232722666
 31
0.0
  0
LINE
  5
16C
330
1F
100
AcDbEntity
  8
1
  6
Continuous
 62
     4
100
AcDbLine
 10
169.249988554704
 20
-37.57732722666
 30
0.0
 11
169.624988554704
 21
-37.82732722666
 31
0.0
  0
LINE
  5
16D
330
1F
100
AcDbEntity
  8
1
  6
Continuous
 62
     4
100
AcDbLine
 10
167.124988554704
 20
-36.70232722666
 30
0.0
 11
169.249988554704
 21
-37.57732722666
 31
0.0
  0
LINE
  5
16E
330
1F
100
AcDbEntity
  8
1
  6
Continuous
 62
     4
100
AcDbLine
 10
166.749988554704
 20
-36.45232722666
 30
0.0
 11
167.124988554704
 21
-36.70232722666
 31
0.0
  0
LINE
  5
16F
330
1F
100
AcDbEntity
  8
1
  6
Continuous
 62
     4
100
AcDbLine
 10
166.624988554704
 20
-36.07732722666
 30
0.0
 11
166.749988554704
 21
-36.45232722666
 31
0.0
  0
LINE
  5
170
330
1F
100
AcDbEntity
  8
1
  6
Continuous
 62
     4
100
AcDbLine
 10
166.624988554704
 20
-35.82732722666
 30
0.0
 11
166.624988554704
 21
-36.07732722666
 31
0.0
  0
LINE
  5
171
330
1F
100
AcDbEntity
  8
1
  6
Continuous
 62
     4
100
AcDbLine
 10
166.749988554704
 20
-35.45232722666
 30
0.0
 11
166.624988554704
 21
-35.82732722666
 31
0.0
  0
LINE
  5
172
330
1F
100
AcDbEntity
  8
1
  6
Continuous
 62
     4
100
AcDbLine
 10
167.124988554704
 20
-35.20232722666
 30
0.0
 11
166.749988554704
 21
-35.45232722666
 31
0.0
  0
LINE
  5
173
330
1F
100
AcDbEntity
  8
1
  6
Continuous
 62
     4
100
AcDbLine
 10
167.499988554704
 20
-35.07732722666
 30
0.0
 11
167.124988554704
 21
-35.20232722666
 31
0.0
  0
LINE
  5
174
330
1F
100
AcDbEntity
  8
1
  6
Continuous
 62
     4
100
AcDbLine
 10
167.999988554704
 20
-34.95232722666
 30
0.0
 11
167.499988554704
 21
-35.07732722666
 31
0.0
  0
LINE
  5
175
330
1F
100
AcDbEntity
  8
1
  6
Continuous
 62
     4
100
AcDbLine
 10
168.499988554704
 20
-34.95232722666
 30
0.0
 11
167.999988554704
 21
-34.95232722666
 31
0.0
  0
LINE
  5
176
330
1F
100
AcDbEntity
  8
1
  6
Continuous
 62
     4
100
AcDbLine
 10
169.124988554704
 20
-35.07732722666
 30
0.0
 11
168.499988554704
 21
-34.95232722666
 31
0.0
  0
LINE
  5
177
330
1F
100
AcDbEntity
  8
1
  6
Continuous
 62
     4
100
AcDbLine
 10
169.499988554704
 20
-35.20232722666
 30
0.0
 11
169.124988554704
 21
-35.07732722666
 31
0.0
  0
LINE
  5
178
330
1F
100
AcDbEntity
  8
1
  6
Continuous
 62
     4
100
AcDbLine
 10
169.874988554704
 20
-35.45232722666
 30
0.0
 11
169.499988554704
 21
-35.20232722666
 31
0.0
  0
LINE
  5
179
330
1F
100
AcDbEntity
  8
1
  6
Continuous
 62
     4
100
AcDbLine
 10
164.999988554704
 20
-39.95232722666
 30
0.0
 11
164.999988554704
 21
-34.95232722666
 31
0.0
  0
LINE
  5
17A
330
1F
100
AcDbEntity
  8
1
  6
Continuous
 62
     4
100
AcDbLine
 10
162.499988554704
 20
-39.95232722666
 30
0.0
 11
161.499988554704
 21
-39.95232722666
 31
0.0
  0
LINE
  5
17B
330
1F
100
AcDbEntity
  8
1
  6
Continuous
 62
     4
100
AcDbLine
 10
162.874988554704
 20
-39.82732722666
 30
0.0
 11
162.499988554704
 21
-39.95232722666
 31
0.0
  0
LINE
  5
17C
330
1F
100
AcDbEntity
  8
1
  6
Continuous
 62
     4
100
AcDbLine
 10
163.249988554704
 20
-39.57732722666
 30
0.0
 11
162.874988554704
 21
-39.82732722666
 31
0.0
  0
LINE
  5
17D
330
1F
100
AcDbEntity
  8
1
  6
Continuous
 62
     4
100
AcDbLine
 10
163.499988554704
 20
-39.07732722666
 30
0.0
 11
163.249988554704
 21
-39.57732722666
 31
0.0
  0
LINE
  5
17E
330
1F
100
AcDbEntity
  8
1
  6
Continuous
 62
     4
100
AcDbLine
 10
163.499988554704
 20
-34.95232722666
 30
0.0
 11
163.499988554704
 21
-39.07732722666
 31
0.0
  0
LINE
  5
17F
330
1F
100
AcDbEntity
  8
1
  6
Continuous
 62
     4
100
AcDbLine
 10
199.687488554704
 20
-28.62232722666
 30
0.0
 11
200.687488554704
 21
-29.24732722666
 31
0.0
  0
LINE
  5
180
330
1F
100
AcDbEntity
  8
1
  6
Continuous
 62
     4
100
AcDbLine
 10
201.062488554704
 20
-28.30982722666
 30
0.0
 11
200.249988554704
 21
-27.68482722666
 31
0.0
  0
LINE
  5
181
330
1F
100
AcDbEntity
  8
1
  6
Continuous
 62
     4
100
AcDbLine
 10
201.749988554704
 20
-27.55982722666
 30
0.0
 11
202.187488554704
 21
-27.99732722666
 31
0.0
  0
LINE
  5
182
330
1F
100
AcDbEntity
  8
1
  6
Continuous
 62
     4
100
AcDbLine
 10
202.499988554704
 20
-27.68482722666
 30
0.0
 11
202.062488554704
 21
-27.24732722666
 31
0.0
  0
LINE
  5
183
330
1F
100
AcDbEntity
  8
1
  6
Continuous
 62
     4
100
AcDbLine
 10
202.187488554704
 20
-29.55982722666
 30
0.0
 11
202.874988554704
 21
-28.62232722666
 31
0.0
  0
LINE
  5
184
330
1F
100
AcDbEntity
  8
1
  6
Continuous
 62
     4
100
AcDbLine
 10
201.062488554704
 20
-30.49732722666
 30
0.0
 11
202.187488554704
 21
-29.55982722666
 31
0.0
  0
LINE
  5
185
330
1F
100
AcDbEntity
  8
1
  6
Continuous
 62
     4
100
AcDbLine
 10
199.999988554704
 20
-31.12232722666
 30
0.0
 11
201.062488554704
 21
-30.49732722666
 31
0.0
  0
LINE
  5
186
330
1F
100
AcDbEntity
  8
1
  6
Continuous
 62
     4
100
AcDbLine
 10
197.062488554704
 20
-29.12232722666
 30
0.0
 11
197.749988554704
 21
-28.18482722666
 31
0.0
  0
LINE
  5
187
330
1F
100
AcDbEntity
  8
1
  6
Continuous
 62
     4
100
AcDbLine
 10
195.937488554704
 20
-30.18482722666
 30
0.0
 11
197.062488554704
 21
-29.12232722666
 31
0.0
  0
LINE
  5
188
330
1F
100
AcDbEntity
  8
1
  6
Continuous
 62
     4
100
AcDbLine
 10
194.999988554704
 20
-30.68482722666
 30
0.0
 11
195.937488554704
 21
-30.18482722666
 31
0.0
  0
LINE
  5
189
330
1F
100
AcDbEntity
  8
1
  6
Continuous
 62
     4
100
AcDbLine
 10
194.812488554704
 20
-27.87232722666
 30
0.0
 11
195.499988554704
 21
-28.62232722666
 31
0.0
  0
LINE
  5
18A
330
1F
100
AcDbEntity
  8
1
  6
Continuous
 62
     4
100
AcDbLine
 10
190.124988554704
 20
-27.55982722666
 30
0.0
 11
192.312488554704
 21
-27.55982722666
 31
0.0
  0
LINE
  5
18B
330
1F
100
AcDbEntity
  8
1
  6
Continuous
 62
     4
100
AcDbLine
 10
192.624988554704
 20
-28.62232722666
 30
0.0
 11
189.812488554704
 21
-28.62232722666
 31
0.0
  0
LINE
  5
18C
330
1F
100
AcDbEntity
  8
1
  6
Continuous
 62
     4
100
AcDbLine
 10
192.312488554704
 20
-29.43482722666
 30
0.0
 11
192.624988554704
 21
-28.62232722666
 31
0.0
  0
LINE
  5
18D
330
1F
100
AcDbEntity
  8
1
  6
Continuous
 62
     4
100
AcDbLine
 10
191.499988554704
 20
-30.49732722666
 30
0.0
 11
192.312488554704
 21
-29.43482722666
 31
0.0
  0
LINE
  5
18E
330
1F
100
AcDbEntity
  8
1
  6
Continuous
 62
     4
100
AcDbLine
 10
190.499988554704
 20
-31.12232722666
 30
0.0
 11
191.499988554704
 21
-30.49732722666
 31
0.0
  0
LINE
  5
18F
330
1F
100
AcDbEntity
  8
1
  6
Continuous
 62
     4
100
AcDbLine
 10
186.499988554704
 20
-30.37232722666
 30
0.0
 11
185.687488554704
 21
-31.12232722666
 31
0.0
  0
LINE
  5
190
330
1F
100
AcDbEntity
  8
1
  6
Continuous
 62
     4
100
AcDbLine
 10
187.312488554704
 20
-29.12232722666
 30
0.0
 11
186.499988554704
 21
-30.37232722666
 31
0.0
  0
LINE
  5
191
330
1F
100
AcDbEntity
  8
1
  6
Continuous
 62
     4
100
AcDbLine
 10
187.624988554704
 20
-27.87232722666
 30
0.0
 11
187.312488554704
 21
-29.12232722666
 31
0.0
  0
LINE
  5
192
330
1F
100
AcDbEntity
  8
1
  6
Continuous
 62
     4
100
AcDbLine
 10
184.812488554704
 20
-27.87232722666
 30
0.0
 11
187.624988554704
 21
-27.87232722666
 31
0.0
  0
LINE
  5
193
330
1F
100
AcDbEntity
  8
1
  6
Continuous
 62
     4
100
AcDbLine
 10
181.062488554704
 20
-30.37232722666
 30
0.0
 11
182.499988554704
 21
-30.37232722666
 31
0.0
  0
LINE
  5
194
330
1F
100
AcDbEntity
  8
1
  6
Continuous
 62
     4
100
AcDbLine
 10
182.624988554704
 20
-29.87232722666
 30
0.0
 11
183.187488554704
 21
-30.68482722666
 31
0.0
  0
LINE
  5
195
330
1F
100
AcDbEntity
  8
1
  6
Continuous
 62
     4
100
AcDbLine
 10
182.062488554704
 20
-28.80982722666
 30
0.0
 11
182.624988554704
 21
-29.87232722666
 31
0.0
  0
LINE
  5
196
330
1F
100
AcDbEntity
  8
1
  6
Continuous
 62
     4
100
AcDbLine
 10
181.749988554704
 20
-27.99732722666
 30
0.0
 11
182.062488554704
 21
-28.80982722666
 31
0.0
  0
LINE
  5
197
330
1F
100
AcDbEntity
  8
1
  6
Continuous
 62
     4
100
AcDbLine
 10
181.499988554704
 20
-28.80982722666
 30
0.0
 11
181.749988554704
 21
-27.99732722666
 31
0.0
  0
LINE
  5
198
330
1F
100
AcDbEntity
  8
1
  6
Continuous
 62
     4
100
AcDbLine
 10
180.812488554704
 20
-29.74732722666
 30
0.0
 11
181.499988554704
 21
-28.80982722666
 31
0.0
  0
LINE
  5
199
330
1F
100
AcDbEntity
  8
1
  6
Continuous
 62
     4
100
AcDbLine
 10
179.999988554704
 20
-30.68482722666
 30
0.0
 11
180.812488554704
 21
-29.74732722666
 31
0.0
  0
LINE
  5
19A
330
1F
100
AcDbEntity
  8
1
  6
Continuous
 62
     4
100
AcDbLine
 10
181.749988554704
 20
-26.74732722666
 30
0.0
 11
181.749988554704
 21
-31.62232722666
 31
0.0
  0
LINE
  5
19B
330
1F
100
AcDbEntity
  8
1
  6
Continuous
 62
     4
100
AcDbLine
 10
180.374988554704
 20
-27.99732722666
 30
0.0
 11
183.187488554704
 21
-27.99732722666
 31
0.0
  0
LINE
  5
19C
330
1F
100
AcDbEntity
  8
1
  6
Continuous
 62
     4
100
AcDbLine
 10
179.249988554704
 20
-28.62232722666
 30
0.0
 11
179.124988554704
 21
-28.80982722666
 31
0.0
  0
LINE
  5
19D
330
1F
100
AcDbEntity
  8
1
  6
Continuous
 62
     4
100
AcDbLine
 10
179.687488554704
 20
-27.99732722666
 30
0.0
 11
179.249988554704
 21
-28.62232722666
 31
0.0
  0
LINE
  5
19E
330
1F
100
AcDbEntity
  8
1
  6
Continuous
 62
     4
100
AcDbLine
 10
180.249988554704
 20
-26.74732722666
 30
0.0
 11
179.687488554704
 21
-27.99732722666
 31
0.0
  0
LINE
  5
19F
330
1F
100
AcDbEntity
  8
1
  6
Continuous
 62
     4
100
AcDbLine
 10
179.687488554704
 20
-31.62232722666
 30
0.0
 11
179.687488554704
 21
-27.99732722666
 31
0.0
  0
LINE
  5
1A0
330
1F
100
AcDbEntity
  8
1
  6
Continuous
 62
     4
100
AcDbLine
 10
174.124988554704
 20
-28.80982722666
 30
0.0
 11
178.312488554704
 21
-28.80982722666
 31
0.0
  0
LINE
  5
1A1
330
1F
100
AcDbEntity
  8
1
  6
Continuous
 62
     4
100
AcDbLine
 10
168.999988554704
 20
-30.12232722666
 30
0.0
 11
168.999988554704
 21
-26.62232722666
 31
0.0
  0
LINE
  5
1A2
330
1F
100
AcDbEntity
  8
1
  6
Continuous
 62
     4
100
AcDbLine
 10
168.999988554704
 20
-31.62232722666
 30
0.0
 11
168.999988554704
 21
-30.12232722666
 31
0.0
  0
LINE
  5
1A3
330
1F
100
AcDbEntity
  8
1
  6
Continuous
 62
     4
100
AcDbLine
 10
169.999988554704
 20
-29.12232722666
 30
0.0
 11
172.499988554704
 21
-31.62232722666
 31
0.0
  0
LINE
  5
1A4
330
1F
100
AcDbEntity
  8
1
  6
Continuous
 62
     4
100
AcDbLine
 10
172.499988554704
 20
-26.62232722666
 30
0.0
 11
169.999988554704
 21
-29.12232722666
 31
0.0
  0
LINE
  5
1A5
330
1F
100
AcDbEntity
  8
1
  6
Continuous
 62
     4
100
AcDbLine
 10
169.999988554704
 20
-29.12232722666
 30
0.0
 11
168.999988554704
 21
-30.12232722666
 31
0.0
  0
LINE
  5
1A6
330
1F
100
AcDbEntity
  8
1
  6
Continuous
 62
     4
100
AcDbLine
 10
167.499988554704
 20
-28.49732722666
 30
0.0
 11
167.499988554704
 21
-29.74732722666
 31
0.0
  0
LINE
  5
1A7
330
1F
100
AcDbEntity
  8
1
  6
Continuous
 62
     4
100
AcDbLine
 10
167.374988554704
 20
-27.74732722666
 30
0.0
 11
167.499988554704
 21
-28.49732722666
 31
0.0
  0
LINE
  5
1A8
330
1F
100
AcDbEntity
  8
1
  6
Continuous
 62
     4
100
AcDbLine
 10
167.124988554704
 20
-27.24732722666
 30
0.0
 11
167.374988554704
 21
-27.74732722666
 31
0.0
  0
LINE
  5
1A9
330
1F
100
AcDbEntity
  8
1
  6
Continuous
 62
     4
100
AcDbLine
 10
166.874988554704
 20
-26.99732722666
 30
0.0
 11
167.124988554704
 21
-27.24732722666
 31
0.0
  0
LINE
  5
1AA
330
1F
100
AcDbEntity
  8
1
  6
Continuous
 62
     4
100
AcDbLine
 10
166.499988554704
 20
-26.74732722666
 30
0.0
 11
166.874988554704
 21
-26.99732722666
 31
0.0
  0
LINE
  5
1AB
330
1F
100
AcDbEntity
  8
1
  6
Continuous
 62
     4
100
AcDbLine
 10
166.124988554704
 20
-26.62232722666
 30
0.0
 11
166.499988554704
 21
-26.74732722666
 31
0.0
  0
LINE
  5
1AC
330
1F
100
AcDbEntity
  8
1
  6
Continuous
 62
     4
100
AcDbLine
 10
165.874988554704
 20
-26.62232722666
 30
0.0
 11
166.124988554704
 21
-26.62232722666
 31
0.0
  0
LINE
  5
1AD
330
1F
100
AcDbEntity
  8
1
  6
Continuous
 62
     4
100
AcDbLine
 10
165.499988554704
 20
-26.74732722666
 30
0.0
 11
165.874988554704
 21
-26.62232722666
 31
0.0
  0
LINE
  5
1AE
330
1F
100
AcDbEntity
  8
1
  6
Continuous
 62
     4
100
AcDbLine
 10
165.124988554704
 20
-26.99732722666
 30
0.0
 11
165.499988554704
 21
-26.74732722666
 31
0.0
  0
LINE
  5
1AF
330
1F
100
AcDbEntity
  8
1
  6
Continuous
 62
     4
100
AcDbLine
 10
164.874988554704
 20
-27.24732722666
 30
0.0
 11
165.124988554704
 21
-26.99732722666
 31
0.0
  0
LINE
  5
1B0
330
1F
100
AcDbEntity
  8
1
  6
Continuous
 62
     4
100
AcDbLine
 10
164.624988554704
 20
-27.74732722666
 30
0.0
 11
164.874988554704
 21
-27.24732722666
 31
0.0
  0
LINE
  5
1B1
330
1F
100
AcDbEntity
  8
1
  6
Continuous
 62
     4
100
AcDbLine
 10
164.499988554704
 20
-28.49732722666
 30
0.0
 11
164.624988554704
 21
-27.74732722666
 31
0.0
  0
LINE
  5
1B2
330
1F
100
AcDbEntity
  8
1
  6
Continuous
 62
     4
100
AcDbLine
 10
164.499988554704
 20
-29.74732722666
 30
0.0
 11
164.499988554704
 21
-28.49732722666
 31
0.0
  0
LINE
  5
1B3
330
1F
100
AcDbEntity
  8
1
  6
Continuous
 62
     4
100
AcDbLine
 10
164.624988554704
 20
-30.49732722666
 30
0.0
 11
164.499988554704
 21
-29.74732722666
 31
0.0
  0
LINE
  5
1B4
330
1F
100
AcDbEntity
  8
1
  6
Continuous
 62
     4
100
AcDbLine
 10
164.874988554704
 20
-30.99732722666
 30
0.0
 11
164.624988554704
 21
-30.49732722666
 31
0.0
  0
LINE
  5
1B5
330
1F
100
AcDbEntity
  8
1
  6
Continuous
 62
     4
100
AcDbLine
 10
165.124988554704
 20
-31.24732722666
 30
0.0
 11
164.874988554704
 21
-30.99732722666
 31
0.0
  0
LINE
  5
1B6
330
1F
100
AcDbEntity
  8
1
  6
Continuous
 62
     4
100
AcDbLine
 10
165.499988554704
 20
-31.49732722666
 30
0.0
 11
165.124988554704
 21
-31.24732722666
 31
0.0
  0
LINE
  5
1B7
330
1F
100
AcDbEntity
  8
1
  6
Continuous
 62
     4
100
AcDbLine
 10
165.874988554704
 20
-31.62232722666
 30
0.0
 11
165.499988554704
 21
-31.49732722666
 31
0.0
  0
LINE
  5
1B8
330
1F
100
AcDbEntity
  8
1
  6
Continuous
 62
     4
100
AcDbLine
 10
166.124988554704
 20
-31.62232722666
 30
0.0
 11
165.874988554704
 21
-31.62232722666
 31
0.0
  0
LINE
  5
1B9
330
1F
100
AcDbEntity
  8
1
  6
Continuous
 62
     4
100
AcDbLine
 10
166.499988554704
 20
-31.49732722666
 30
0.0
 11
166.124988554704
 21
-31.62232722666
 31
0.0
  0
LINE
  5
1BA
330
1F
100
AcDbEntity
  8
1
  6
Continuous
 62
     4
100
AcDbLine
 10
166.874988554704
 20
-31.24732722666
 30
0.0
 11
166.499988554704
 21
-31.49732722666
 31
0.0
  0
LINE
  5
1BB
330
1F
100
AcDbEntity
  8
1
  6
Continuous
 62
     4
100
AcDbLine
 10
167.124988554704
 20
-30.99732722666
 30
0.0
 11
166.874988554704
 21
-31.24732722666
 31
0.0
  0
LINE
  5
1BC
330
1F
100
AcDbEntity
  8
1
  6
Continuous
 62
     4
100
AcDbLine
 10
167.374988554704
 20
-30.49732722666
 30
0.0
 11
167.124988554704
 21
-30.99732722666
 31
0.0
  0
LINE
  5
1BD
330
1F
100
AcDbEntity
  8
1
  6
Continuous
 62
     4
100
AcDbLine
 10
167.499988554704
 20
-29.74732722666
 30
0.0
 11
167.374988554704
 21
-30.49732722666
 31
0.0
  0
LINE
  5
1BE
330
1F
100
AcDbEntity
  8
1
  6
Continuous
 62
     4
100
AcDbLine
 10
162.999988554704
 20
-26.62232722666
 30
0.0
 11
162.999988554704
 21
-31.62232722666
 31
0.0
  0
LINE
  5
1BF
330
1F
100
AcDbEntity
  8
1
  6
Continuous
 62
     4
100
AcDbLine
 10
161.499988554704
 20
-28.12232722666
 30
0.0
 11
162.999988554704
 21
-26.62232722666
 31
0.0
  0
LINE
  5
1C0
330
1F
100
AcDbEntity
  8
1
  6
Continuous
 62
     4
100
AcDbLine
 10
424.245175800115
 20
461.562833790327
 30
0.0
 11
424.245175800115
 21
459.062833790327
 31
0.0
  0
LINE
  5
1C1
330
1F
100
AcDbEntity
  8
1
  6
Continuous
 62
     4
100
AcDbLine
 10
423.995175800115
 20
463.062833790327
 30
0.0
 11
424.245175800115
 21
461.562833790327
 31
0.0
  0
LINE
  5
1C2
330
1F
100
AcDbEntity
  8
1
  6
Continuous
 62
     4
100
AcDbLine
 10
423.495175800115
 20
464.062833790327
 30
0.0
 11
423.995175800115
 21
463.062833790327
 31
0.0
  0
LINE
  5
1C3
330
1F
100
AcDbEntity
  8
1
  6
Continuous
 62
     4
100
AcDbLine
 10
422.995175800115
 20
464.562833790327
 30
0.0
 11
423.495175800115
 21
464.062833790327
 31
0.0
  0
LINE
  5
1C4
330
1F
100
AcDbEntity
  8
1
  6
Continuous
 62
     4
100
AcDbLine
 10
422.245175800115
 20
465.062833790327
 30
0.0
 11
422.995175800115
 21
464.562833790327
 31
0.0
  0
LINE
  5
1C5
330
1F
100
AcDbEntity
  8
1
  6
Continuous
 62
     4
100
AcDbLine
 10
421.495175800115
 20
465.312833790327
 30
0.0
 11
422.245175800115
 21
465.062833790327
 31
0.0
  0
LINE
  5
1C6
330
1F
100
AcDbEntity
  8
1
  6
Continuous
 62
     4
100
AcDbLine
 10
420.995175800115
 20
465.312833790327
 30
0.0
 11
421.495175800115
 21
465.312833790327
 31
0.0
  0
LINE
  5
1C7
330
1F
100
AcDbEntity
  8
1
  6
Continuous
 62
     4
100
AcDbLine
 10
420.245175800115
 20
465.062833790327
 30
0.0
 11
420.995175800115
 21
465.312833790327
 31
0.0
  0
LINE
  5
1C8
330
1F
100
AcDbEntity
  8
1
  6
Continuous
 62
     4
100
AcDbLine
 10
419.495175800115
 20
464.562833790327
 30
0.0
 11
420.245175800115
 21
465.062833790327
 31
0.0
  0
LINE
  5
1C9
330
1F
100
AcDbEntity
  8
1
  6
Continuous
 62
     4
100
AcDbLine
 10
418.995175800115
 20
464.062833790327
 30
0.0
 11
419.495175800115
 21
464.562833790327
 31
0.0
  0
LINE
  5
1CA
330
1F
100
AcDbEntity
  8
1
  6
Continuous
 62
     4
100
AcDbLine
 10
418.495175800115
 20
463.062833790327
 30
0.0
 11
418.995175800115
 21
464.062833790327
 31
0.0
  0
LINE
  5
1CB
330
1F
100
AcDbEntity
  8
1
  6
Continuous
 62
     4
100
AcDbLine
 10
418.245175800115
 20
461.562833790327
 30
0.0
 11
418.495175800115
 21
463.062833790327
 31
0.0
  0
LINE
  5
1CC
330
1F
100
AcDbEntity
  8
1
  6
Continuous
 62
     4
100
AcDbLine
 10
418.245175800115
 20
459.062833790327
 30
0.0
 11
418.245175800115
 21
461.562833790327
 31
0.0
  0
LINE
  5
1CD
330
1F
100
AcDbEntity
  8
1
  6
Continuous
 62
     4
100
AcDbLine
 10
418.495175800115
 20
457.562833790327
 30
0.0
 11
418.245175800115
 21
459.062833790327
 31
0.0
  0
LINE
  5
1CE
330
1F
100
AcDbEntity
  8
1
  6
Continuous
 62
     4
100
AcDbLine
 10
418.995175800115
 20
456.562833790327
 30
0.0
 11
418.495175800115
 21
457.562833790327
 31
0.0
  0
LINE
  5
1CF
330
1F
100
AcDbEntity
  8
1
  6
Continuous
 62
     4
100
AcDbLine
 10
419.495175800115
 20
456.062833790327
 30
0.0
 11
418.995175800115
 21
456.562833790327
 31
0.0
  0
LINE
  5
1D0
330
1F
100
AcDbEntity
  8
1
  6
Continuous
 62
     4
100
AcDbLine
 10
420.245175800115
 20
455.562833790327
 30
0.0
 11
419.495175800115
 21
456.062833790327
 31
0.0
  0
LINE
  5
1D1
330
1F
100
AcDbEntity
  8
1
  6
Continuous
 62
     4
100
AcDbLine
 10
420.995175800115
 20
455.312833790327
 30
0.0
 11
420.245175800115
 21
455.562833790327
 31
0.0
  0
LINE
  5
1D2
330
1F
100
AcDbEntity
  8
1
  6
Continuous
 62
     4
100
AcDbLine
 10
421.495175800115
 20
455.312833790327
 30
0.0
 11
420.995175800115
 21
455.312833790327
 31
0.0
  0
LINE
  5
1D3
330
1F
100
AcDbEntity
  8
1
  6
Continuous
 62
     4
100
AcDbLine
 10
422.245175800115
 20
455.562833790327
 30
0.0
 11
421.495175800115
 21
455.312833790327
 31
0.0
  0
LINE
  5
1D4
330
1F
100
AcDbEntity
  8
1
  6
Continuous
 62
     4
100
AcDbLine
 10
422.995175800115
 20
456.062833790327
 30
0.0
 11
422.245175800115
 21
455.562833790327
 31
0.0
  0
LINE
  5
1D5
330
1F
100
AcDbEntity
  8
1
  6
Continuous
 62
     4
100
AcDbLine
 10
423.495175800115
 20
456.562833790327
 30
0.0
 11
422.995175800115
 21
456.062833790327
 31
0.0
  0
LINE
  5
1D6
330
1F
100
AcDbEntity
  8
1
  6
Continuous
 62
     4
100
AcDbLine
 10
423.995175800115
 20
457.562833790327
 30
0.0
 11
423.495175800115
 21
456.562833790327
 31
0.0
  0
LINE
  5
1D7
330
1F
100
AcDbEntity
  8
1
  6
Continuous
 62
     4
100
AcDbLine
 10
424.245175800115
 20
459.062833790327
 30
0.0
 11
423.995175800115
 21
457.562833790327
 31
0.0
  0
LINE
  5
1D8
330
1F
100
AcDbEntity
  8
1
  6
Continuous
 62
     4
100
AcDbLine
 10
410.245175800115
 20
464.562833790327
 30
0.0
 11
410.995175800115
 21
465.062833790327
 31
0.0
  0
LINE
  5
1D9
330
1F
100
AcDbEntity
  8
1
  6
Continuous
 62
     4
100
AcDbLine
 10
409.745175800115
 20
463.812833790327
 30
0.0
 11
410.245175800115
 21
464.562833790327
 31
0.0
  0
LINE
  5
1DA
330
1F
100
AcDbEntity
  8
1
  6
Continuous
 62
     4
100
AcDbLine
 10
409.745175800115
 20
462.812833790327
 30
0.0
 11
409.745175800115
 21
463.812833790327
 31
0.0
  0
LINE
  5
1DB
330
1F
100
AcDbEntity
  8
1
  6
Continuous
 62
     4
100
AcDbLine
 10
410.245175800115
 20
462.062833790327
 30
0.0
 11
409.745175800115
 21
462.812833790327
 31
0.0
  0
LINE
  5
1DC
330
1F
100
AcDbEntity
  8
1
  6
Continuous
 62
     4
100
AcDbLine
 10
410.995175800115
 20
461.562833790327
 30
0.0
 11
410.245175800115
 21
462.062833790327
 31
0.0
  0
LINE
  5
1DD
330
1F
100
AcDbEntity
  8
1
  6
Continuous
 62
     4
100
AcDbLine
 10
411.745175800115
 20
461.312833790327
 30
0.0
 11
410.995175800115
 21
461.562833790327
 31
0.0
  0
LINE
  5
1DE
330
1F
100
AcDbEntity
  8
1
  6
Continuous
 62
     4
100
AcDbLine
 10
412.745175800115
 20
461.312833790327
 30
0.0
 11
411.745175800115
 21
461.312833790327
 31
0.0
  0
LINE
  5
1DF
330
1F
100
AcDbEntity
  8
1
  6
Continuous
 62
     4
100
AcDbLine
 10
413.495175800115
 20
461.562833790327
 30
0.0
 11
412.745175800115
 21
461.312833790327
 31
0.0
  0
LINE
  5
1E0
330
1F
100
AcDbEntity
  8
1
  6
Continuous
 62
     4
100
AcDbLine
 10
414.245175800115
 20
462.062833790327
 30
0.0
 11
413.495175800115
 21
461.562833790327
 31
0.0
  0
LINE
  5
1E1
330
1F
100
AcDbEntity
  8
1
  6
Continuous
 62
     4
100
AcDbLine
 10
414.745175800115
 20
462.812833790327
 30
0.0
 11
414.245175800115
 21
462.062833790327
 31
0.0
  0
LINE
  5
1E2
330
1F
100
AcDbEntity
  8
1
  6
Continuous
 62
     4
100
AcDbLine
 10
414.745175800115
 20
463.812833790327
 30
0.0
 11
414.745175800115
 21
462.812833790327
 31
0.0
  0
LINE
  5
1E3
330
1F
100
AcDbEntity
  8
1
  6
Continuous
 62
     4
100
AcDbLine
 10
414.245175800115
 20
464.562833790327
 30
0.0
 11
414.745175800115
 21
463.812833790327
 31
0.0
  0
LINE
  5
1E4
330
1F
100
AcDbEntity
  8
1
  6
Continuous
 62
     4
100
AcDbLine
 10
413.495175800115
 20
465.062833790327
 30
0.0
 11
414.245175800115
 21
464.562833790327
 31
0.0
  0
LINE
  5
1E5
330
1F
100
AcDbEntity
  8
1
  6
Continuous
 62
     4
100
AcDbLine
 10
412.745175800115
 20
465.312833790327
 30
0.0
 11
413.495175800115
 21
465.062833790327
 31
0.0
  0
LINE
  5
1E6
330
1F
100
AcDbEntity
  8
1
  6
Continuous
 62
     4
100
AcDbLine
 10
411.745175800115
 20
465.312833790327
 30
0.0
 11
412.745175800115
 21
465.312833790327
 31
0.0
  0
LINE
  5
1E7
330
1F
100
AcDbEntity
  8
1
  6
Continuous
 62
     4
100
AcDbLine
 10
410.995175800115
 20
465.062833790327
 30
0.0
 11
411.745175800115
 21
465.312833790327
 31
0.0
  0
LINE
  5
1E8
330
1F
100
AcDbEntity
  8
1
  6
Continuous
 62
     4
100
AcDbLine
 10
413.995175800115
 20
460.812833790327
 30
0.0
 11
412.745175800115
 21
461.312833790327
 31
0.0
  0
LINE
  5
1E9
330
1F
100
AcDbEntity
  8
1
  6
Continuous
 62
     4
100
AcDbLine
 10
414.745175800115
 20
460.062833790327
 30
0.0
 11
413.995175800115
 21
460.812833790327
 31
0.0
  0
LINE
  5
1EA
330
1F
100
AcDbEntity
  8
1
  6
Continuous
 62
     4
100
AcDbLine
 10
415.245175800115
 20
459.062833790327
 30
0.0
 11
414.745175800115
 21
460.062833790327
 31
0.0
  0
LINE
  5
1EB
330
1F
100
AcDbEntity
  8
1
  6
Continuous
 62
     4
100
AcDbLine
 10
415.245175800115
 20
457.562833790327
 30
0.0
 11
415.245175800115
 21
459.062833790327
 31
0.0
  0
LINE
  5
1EC
330
1F
100
AcDbEntity
  8
1
  6
Continuous
 62
     4
100
AcDbLine
 10
414.745175800115
 20
456.562833790327
 30
0.0
 11
415.245175800115
 21
457.562833790327
 31
0.0
  0
LINE
  5
1ED
330
1F
100
AcDbEntity
  8
1
  6
Continuous
 62
     4
100
AcDbLine
 10
413.995175800115
 20
455.812833790327
 30
0.0
 11
414.745175800115
 21
456.562833790327
 31
0.0
  0
LINE
  5
1EE
330
1F
100
AcDbEntity
  8
1
  6
Continuous
 62
     4
100
AcDbLine
 10
412.995175800115
 20
455.312833790327
 30
0.0
 11
413.995175800115
 21
455.812833790327
 31
0.0
  0
LINE
  5
1EF
330
1F
100
AcDbEntity
  8
1
  6
Continuous
 62
     4
100
AcDbLine
 10
411.495175800115
 20
455.312833790327
 30
0.0
 11
412.995175800115
 21
455.312833790327
 31
0.0
  0
LINE
  5
1F0
330
1F
100
AcDbEntity
  8
1
  6
Continuous
 62
     4
100
AcDbLine
 10
410.495175800115
 20
455.812833790327
 30
0.0
 11
411.495175800115
 21
455.312833790327
 31
0.0
  0
LINE
  5
1F1
330
1F
100
AcDbEntity
  8
1
  6
Continuous
 62
     4
100
AcDbLine
 10
409.745175800115
 20
456.562833790327
 30
0.0
 11
410.495175800115
 21
455.812833790327
 31
0.0
  0
LINE
  5
1F2
330
1F
100
AcDbEntity
  8
1
  6
Continuous
 62
     4
100
AcDbLine
 10
409.245175800115
 20
457.562833790327
 30
0.0
 11
409.745175800115
 21
456.562833790327
 31
0.0
  0
LINE
  5
1F3
330
1F
100
AcDbEntity
  8
1
  6
Continuous
 62
     4
100
AcDbLine
 10
409.245175800115
 20
459.062833790327
 30
0.0
 11
409.245175800115
 21
457.562833790327
 31
0.0
  0
LINE
  5
1F4
330
1F
100
AcDbEntity
  8
1
  6
Continuous
 62
     4
100
AcDbLine
 10
409.745175800115
 20
460.062833790327
 30
0.0
 11
409.245175800115
 21
459.062833790327
 31
0.0
  0
LINE
  5
1F5
330
1F
100
AcDbEntity
  8
1
  6
Continuous
 62
     4
100
AcDbLine
 10
410.495175800115
 20
460.812833790327
 30
0.0
 11
409.745175800115
 21
460.062833790327
 31
0.0
  0
LINE
  5
1F6
330
1F
100
AcDbEntity
  8
1
  6
Continuous
 62
     4
100
AcDbLine
 10
411.745175800115
 20
461.312833790327
 30
0.0
 11
410.495175800115
 21
460.812833790327
 31
0.0
  0
LINE
  5
1F7
330
1F
100
AcDbEntity
  8
1
  6
Continuous
 62
     4
100
AcDbLine
 10
401.245175800115
 20
458.812833790327
 30
0.0
 11
406.245175800115
 21
458.812833790327
 31
0.0
  0
LINE
  5
1F8
330
1F
100
AcDbEntity
  8
1
  6
Continuous
 62
     4
100
AcDbLine
 10
391.245175800115
 20
460.812833790327
 30
0.0
 11
391.245175800115
 21
460.312833790327
 31
0.0
  0
LINE
  5
1F9
330
1F
100
AcDbEntity
  8
1
  6
Continuous
 62
     4
100
AcDbLine
 10
398.245175800115
 20
460.812833790327
 30
0.0
 11
398.245175800115
 21
455.312833790327
 31
0.0
  0
LINE
  5
1FA
330
1F
100
AcDbEntity
  8
1
  6
Continuous
 62
     4
100
AcDbLine
 10
391.245175800115
 20
460.312833790327
 30
0.0
 11
391.245175800115
 21
455.312833790327
 31
0.0
  0
LINE
  5
1FB
330
1F
100
AcDbEntity
  8
1
  6
Continuous
 62
     4
100
AcDbLine
 10
391.245175800115
 20
465.312833790327
 30
0.0
 11
391.245175800115
 21
460.812833790327
 31
0.0
  0
LINE
  5
1FC
330
1F
100
AcDbEntity
  8
1
  6
Continuous
 62
     4
100
AcDbLine
 10
391.245175800115
 20
460.812833790327
 30
0.0
 11
398.245175800115
 21
460.812833790327
 31
0.0
  0
LINE
  5
1FD
330
1F
100
AcDbEntity
  8
1
  6
Continuous
 62
     4
100
AcDbLine
 10
398.245175800115
 20
465.312833790327
 30
0.0
 11
398.245175800115
 21
460.812833790327
 31
0.0
  0
LINE
  5
1FE
330
1F
100
AcDbEntity
  8
1
  6
Continuous
 62
     4
100
AcDbLine
 10
381.745175800115
 20
460.812833790327
 30
0.0
 11
381.745175800115
 21
465.312833790327
 31
0.0
  0
LINE
  5
1FF
330
1F
100
AcDbEntity
  8
1
  6
Continuous
 62
     4
100
AcDbLine
 10
386.495175800115
 20
461.062833790327
 30
0.0
 11
385.745175800115
 21
460.812833790327
 31
0.0
  0
LINE
  5
200
330
1F
100
AcDbEntity
  8
1
  6
Continuous
 62
     4
100
AcDbLine
 10
387.245175800115
 20
461.562833790327
 30
0.0
 11
386.495175800115
 21
461.062833790327
 31
0.0
  0
LINE
  5
201
330
1F
100
AcDbEntity
  8
1
  6
Continuous
 62
     4
100
AcDbLine
 10
387.745175800115
 20
462.562833790327
 30
0.0
 11
387.245175800115
 21
461.562833790327
 31
0.0
  0
LINE
  5
202
330
1F
100
AcDbEntity
  8
1
  6
Continuous
 62
     4
100
AcDbLine
 10
387.745175800115
 20
463.312833790327
 30
0.0
 11
387.745175800115
 21
462.562833790327
 31
0.0
  0
LINE
  5
203
330
1F
100
AcDbEntity
  8
1
  6
Continuous
 62
     4
100
AcDbLine
 10
387.495175800115
 20
464.312833790327
 30
0.0
 11
387.745175800115
 21
463.312833790327
 31
0.0
  0
LINE
  5
204
330
1F
100
AcDbEntity
  8
1
  6
Continuous
 62
     4
100
AcDbLine
 10
386.745175800115
 20
465.062833790327
 30
0.0
 11
387.495175800115
 21
464.312833790327
 31
0.0
  0
LINE
  5
205
330
1F
100
AcDbEntity
  8
1
  6
Continuous
 62
     4
100
AcDbLine
 10
385.495175800115
 20
465.312833790327
 30
0.0
 11
386.745175800115
 21
465.062833790327
 31
0.0
  0
LINE
  5
206
330
1F
100
AcDbEntity
  8
1
  6
Continuous
 62
     4
100
AcDbLine
 10
381.745175800115
 20
465.312833790327
 30
0.0
 11
385.495175800115
 21
465.312833790327
 31
0.0
  0
LINE
  5
207
330
1F
100
AcDbEntity
  8
1
  6
Continuous
 62
     4
100
AcDbLine
 10
381.745175800115
 20
455.312833790327
 30
0.0
 11
381.745175800115
 21
460.812833790327
 31
0.0
  0
LINE
  5
208
330
1F
100
AcDbEntity
  8
1
  6
Continuous
 62
     4
100
AcDbLine
 10
386.245175800115
 20
455.312833790327
 30
0.0
 11
381.745175800115
 21
455.312833790327
 31
0.0
  0
LINE
  5
209
330
1F
100
AcDbEntity
  8
1
  6
Continuous
 62
     4
100
AcDbLine
 10
387.245175800115
 20
455.812833790327
 30
0.0
 11
386.245175800115
 21
455.312833790327
 31
0.0
  0
LINE
  5
20A
330
1F
100
AcDbEntity
  8
1
  6
Continuous
 62
     4
100
AcDbLine
 10
387.745175800115
 20
456.312833790327
 30
0.0
 11
387.245175800115
 21
455.812833790327
 31
0.0
  0
LINE
  5
20B
330
1F
100
AcDbEntity
  8
1
  6
Continuous
 62
     4
100
AcDbLine
 10
388.245175800115
 20
457.312833790327
 30
0.0
 11
387.745175800115
 21
456.312833790327
 31
0.0
  0
LINE
  5
20C
330
1F
100
AcDbEntity
  8
1
  6
Continuous
 62
     4
100
AcDbLine
 10
388.245175800115
 20
458.562833790327
 30
0.0
 11
388.245175800115
 21
457.312833790327
 31
0.0
  0
LINE
  5
20D
330
1F
100
AcDbEntity
  8
1
  6
Continuous
 62
     4
100
AcDbLine
 10
387.745175800115
 20
459.812833790327
 30
0.0
 11
388.245175800115
 21
458.562833790327
 31
0.0
  0
LINE
  5
20E
330
1F
100
AcDbEntity
  8
1
  6
Continuous
 62
     4
100
AcDbLine
 10
387.245175800115
 20
460.312833790327
 30
0.0
 11
387.745175800115
 21
459.812833790327
 31
0.0
  0
LINE
  5
20F
330
1F
100
AcDbEntity
  8
1
  6
Continuous
 62
     4
100
AcDbLine
 10
386.245175800115
 20
460.812833790327
 30
0.0
 11
387.245175800115
 21
460.312833790327
 31
0.0
  0
LINE
  5
210
330
1F
100
AcDbEntity
  8
1
  6
Continuous
 62
     4
100
AcDbLine
 10
385.745175800115
 20
460.812833790327
 30
0.0
 11
386.245175800115
 21
460.812833790327
 31
0.0
  0
LINE
  5
211
330
1F
100
AcDbEntity
  8
1
  6
Continuous
 62
     4
100
AcDbLine
 10
381.745175800115
 20
460.812833790327
 30
0.0
 11
385.745175800115
 21
460.812833790327
 31
0.0
  0
LINE
  5
245
330
1F
100
AcDbEntity
  8
1
  6
Continuous
 62
     4
100
AcDbLine
 10
115.0
 20
0.0
 30
0.0
 11
116.360102947153
 21
-2.79218389449293
 31
0.0
  0
LINE
  5
246
330
1F
100
AcDbEntity
  8
1
  6
Continuous
 62
     4
100
AcDbLine
 10
115.0
 20
0.0
 30
0.0
 11
117.573975651243
 21
-1.73805071109207
 31
0.0
  0
LINE
  5
247
330
1F
100
AcDbEntity
  8
1
  6
Continuous
 62
     4
100
AcDbLine
 10
24.0
 20
-204.148
 30
0.0
 11
25.0923567567453
 21
-207.055391897133
 31
0.0
  0
LINE
  5
248
330
1F
100
AcDbEntity
  8
1
  6
Continuous
 62
     4
100
AcDbLine
 10
24.0
 20
-204.148
 30
0.0
 11
26.3997046499034
 21
-206.119696863301
 31
0.0
  0
LINE
  5
249
330
1F
100
AcDbEntity
  8
100
  6
Continuous
 62
     3
100
AcDbLine
 10
-50.0
 20
129.0
 30
0.0
 11
50.0
 21
129.0
 31
0.0
  0
LINE
  5
24A
330
1F
100
AcDbEntity
  8
100
  6
Continuous
 62
     3
100
AcDbLine
 10
50.0
 20
97.0
 30
0.0
 11
50.0
 21
129.0
 31
0.0
  0
LINE
  5
24B
330
1F
100
AcDbEntity
  8
100
  6
Continuous
 62
     3
100
AcDbLine
 10
-50.0
 20
97.0
 30
0.0
 11
-50.0
 21
129.0
 31
0.0
  0
LINE
  5
24C
330
1F
100
AcDbEntity
  8
100
  6
Continuous
 62
     3
100
AcDbLine
 10
-50.0
 20
97.0
 30
0.0
 11
50.0
 21
97.0
 31
0.0
  0
LINE
  5
24D
330
1F
100
AcDbEntity
  8
100
  6
Continuous
 62
     3
100
AcDbLine
 10
39.0
 20
62.9261115260704
 30
0.0
 11
39.0
 21
97.0
 31
0.0
  0
LINE
  5
24E
330
1F
100
AcDbEntity
  8
100
  6
Continuous
 62
     3
100
AcDbLine
 10
-39.0
 20
62.9261115260704
 30
0.0
 11
-39.0
 21
97.0
 31
0.0
  0
LINE
  5
24F
330
1F
100
AcDbEntity
  8
100
  6
Continuous
 62
     3
100
AcDbLine
 10
39.0
 20
-86.0
 30
0.0
 11
39.0
 21
-62.9261115260704
 31
0.0
  0
LINE
  5
250
330
1F
100
AcDbEntity
  8
100
  6
Continuous
 62
     3
100
AcDbLine
 10
-39.0
 20
-86.0
 30
0.0
 11
-39.0
 21
-62.9261115260705
 31
0.0
  0
LINE
  5
251
330
1F
100
AcDbEntity
  8
100
  6
Continuous
 62
     3
100
AcDbLine
 10
97.0
 20
92.0
 30
0.0
 11
115.0
 21
92.0
 31
0.0
  0
LINE
  5
252
330
1F
100
AcDbEntity
  8
100
  6
Continuous
 62
     3
100
AcDbLine
 10
97.0
 20
-92.0
 30
0.0
 11
115.0
 21
-92.0
 31
0.0
  0
LINE
  5
253
330
1F
100
AcDbEntity
  8
100
  6
Continuous
 62
     3
100
AcDbLine
 10
97.0
 20
-92.0
 30
0.0
 11
97.0
 21
92.0
 31
0.0
  0
LINE
  5
254
330
1F
100
AcDbEntity
  8
100
  6
Continuous
 62
     3
100
AcDbLine
 10
97.0
 20
48.5
 30
0.0
 11
70.4672176857066
 21
43.1934435371413
 31
0.0
  0
LINE
  5
255
330
1F
100
AcDbEntity
  8
100
  6
Continuous
 62
     3
100
AcDbLine
 10
97.0
 20
-48.5
 30
0.0
 11
70.4672176857066
 21
-43.1934435371413
 31
0.0
  0
LINE
  5
256
330
1F
100
AcDbEntity
  8
100
  6
Continuous
 62
     3
100
AcDbLine
 10
-115.0
 20
-92.0
 30
0.0
 11
-115.0
 21
92.0
 31
0.0
  0
LINE
  5
257
330
1F
100
AcDbEntity
  8
100
  6
Continuous
 62
     3
100
AcDbLine
 10
-97.0
 20
48.5
 30
0.0
 11
-70.4672176857066
 21
43.1934435371413
 31
0.0
  0
LINE
  5
258
330
1F
100
AcDbEntity
  8
100
  6
Continuous
 62
     3
100
AcDbLine
 10
-97.0
 20
92.0
 30
0.0
 11
-115.0
 21
92.0
 31
0.0
  0
LINE
  5
259
330
1F
100
AcDbEntity
  8
100
  6
Continuous
 62
     3
100
AcDbLine
 10
-97.0
 20
-92.0
 30
0.0
 11
-97.0
 21
92.0
 31
0.0
  0
LINE
  5
25A
330
1F
100
AcDbEntity
  8
100
  6
Continuous
 62
     3
100
AcDbLine
 10
-97.0
 20
-48.5
 30
0.0
 11
-70.4672176857066
 21
-43.1934435371413
 31
0.0
  0
LINE
  5
25B
330
1F
100
AcDbEntity
  8
100
  6
Continuous
 62
     3
100
AcDbLine
 10
-97.0
 20
-92.0
 30
0.0
 11
-115.0
 21
-92.0
 31
0.0
  0
LINE
  5
25C
330
1F
100
AcDbEntity
  8
2
  6
DOT_CENTER
 62
     1
100
AcDbLine
 10
93.0
 20
75.0
 30
0.0
 11
119.0
 21
75.0
 31
0.0
  0
LINE
  5
25D
330
1F
100
AcDbEntity
  8
2
  6
DOT_CENTER
 62
     1
100
AcDbLine
 10
93.0
 20
-75.0
 30
0.0
 11
119.0
 21
-75.0
 31
0.0
  0
LINE
  5
25E
330
1F
100
AcDbEntity
  8
2
  6
DASHED
 62
     3
100
AcDbLine
 10
97.0
 20
-65.5
 30
0.0
 11
115.0
 21
-65.5
 31
0.0
  0
LINE
  5
25F
330
1F
100
AcDbEntity
  8
2
  6
DASHED
 62
     3
100
AcDbLine
 10
97.0
 20
-84.5
 30
0.0
 11
115.0
 21
-84.5
 31
0.0
  0
LINE
  5
260
330
1F
100
AcDbEntity
  8
2
  6
DOT_CENTER
 62
     1
100
AcDbLine
 10
-93.0
 20
75.0
 30
0.0
 11
-119.0
 21
75.0
 31
0.0
  0
LINE
  5
261
330
1F
100
AcDbEntity
  8
2
  6
DOT_CENTER
 62
     1
100
AcDbLine
 10
-93.0
 20
-75.0
 30
0.0
 11
-119.0
 21
-75.0
 31
0.0
  0
LINE
  5
262
330
1F
100
AcDbEntity
  8
2
  6
DASHED
 62
     3
100
AcDbLine
 10
-97.0
 20
-65.5
 30
0.0
 11
-115.0
 21
-65.5
 31
0.0
  0
LINE
  5
263
330
1F
100
AcDbEntity
  8
2
  6
DASHED
 62
     3
100
AcDbLine
 10
-97.0
 20
-84.5
 30
0.0
 11
-115.0
 21
-84.5
 31
0.0
  0
LINE
  5
264
330
1F
100
AcDbEntity
  8
2
  6
DOT_CENTER
 62
     1
100
AcDbLine
 10
-127.0
 20
0.0
 30
0.0
 11
-30.7211031282043
 21
0.0
 31
0.0
  0
LINE
  5
265
330
1F
100
AcDbEntity
  8
2
  6
DOT_CENTER
 62
     1
100
AcDbLine
 10
33.4940042289052
 20
0.0
 30
0.0
 11
127.0
 21
0.0
 31
0.0
  0
LINE
  5
266
330
1F
100
AcDbEntity
  8
100
  6
Continuous
 62
     3
100
AcDbLine
 10
-54.1196100146196
 20
-86.0
 30
0.0
 11
54.1196100146196
 21
-86.0
 31
0.0
  0
LINE
  5
267
330
1F
100
AcDbEntity
  8
100
  6
Continuous
 62
     3
100
AcDbLine
 10
-22.1358253770798
 20
55.9436107124953
 30
0.0
 11
22.1358253770797
 21
55.9436107124953
 31
0.0
  0
LINE
  5
268
330
1F
100
AcDbEntity
  8
100
  6
Continuous
 62
     3
100
AcDbLine
 10
-20.012628907454
 20
-56.0
 30
0.0
 11
20.012628907454
 21
-56.0
 31
0.0
  0
LINE
  5
269
330
1F
100
AcDbEntity
  8
100
  6
Continuous
 62
     3
100
AcDbLine
 10
-54.1196100146196
 20
-112.0
 30
0.0
 11
54.1196100146196
 21
-112.0
 31
0.0
  0
LINE
  5
26A
330
1F
100
AcDbEntity
  8
100
  6
Continuous
 62
     3
100
AcDbLine
 10
-54.1196100146196
 20
-112.0
 30
0.0
 11
-54.1196100146196
 21
-86.0
 31
0.0
  0
LINE
  5
26B
330
1F
100
AcDbEntity
  8
100
  6
Continuous
 62
     3
100
AcDbLine
 10
54.1196100146196
 20
-112.0
 30
0.0
 11
54.1196100146196
 21
-86.0
 31
0.0
  0
LINE
  5
26C
330
1F
100
AcDbEntity
  8
100
  6
Continuous
 62
     3
100
AcDbLine
 10
38.2683432365091
 20
-112.0
 30
0.0
 11
38.2683432365091
 21
-86.0
 31
0.0
  0
LINE
  5
26D
330
1F
100
AcDbEntity
  8
100
  6
Continuous
 62
     3
100
AcDbLine
 10
0.0
 20
-112.0
 30
0.0
 11
0.0
 21
-86.0
 31
0.0
  0
LINE
  5
26E
330
1F
100
AcDbEntity
  8
100
  6
Continuous
 62
     3
100
AcDbLine
 10
-38.2683432365091
 20
-112.0
 30
0.0
 11
-38.2683432365091
 21
-86.0
 31
0.0
  0
LINE
  5
26F
330
1F
100
AcDbEntity
  8
100
  6
Continuous
 62
     3
100
AcDbLine
 10
-33.5
 20
-150.0
 30
0.0
 11
33.5
 21
-150.0
 31
0.0
  0
LINE
  5
270
330
1F
100
AcDbEntity
  8
100
  6
Continuous
 62
     3
100
AcDbLine
 10
-36.2601387097952
 20
-121.0
 30
0.0
 11
36.2601387097952
 21
-121.0
 31
0.0
  0
LINE
  5
271
330
1F
100
AcDbEntity
  8
100
  6
Continuous
 62
     3
100
AcDbLine
 10
-33.5
 20
-150.0
 30
0.0
 11
-33.5
 21
-145.0
 31
0.0
  0
LINE
  5
272
330
1F
100
AcDbEntity
  8
100
  6
Continuous
 62
     3
100
AcDbLine
 10
-36.2601387097952
 20
-145.0
 30
0.0
 11
-36.2601387097952
 21
-121.0
 31
0.0
  0
LINE
  5
273
330
1F
100
AcDbEntity
  8
100
  6
Continuous
 62
     3
100
AcDbLine
 10
-29.6500000000001
 20
-112.0
 30
0.0
 11
-29.6500000000001
 21
-121.0
 31
0.0
  0
LINE
  5
274
330
1F
100
AcDbEntity
  8
100
  6
Continuous
 62
     3
100
AcDbLine
 10
-24.0
 20
-150.0
 30
0.0
 11
-24.0
 21
-204.148
 31
0.0
  0
LINE
  5
275
330
1F
100
AcDbEntity
  8
100
  6
Continuous
 62
     3
100
AcDbLine
 10
23.504625
 20
-220.0
 30
0.0
 11
-23.504625
 21
-220.0
 31
0.0
  0
LINE
  5
276
330
1F
100
AcDbEntity
  8
100
  6
Continuous
 62
     3
100
AcDbLine
 10
24.0
 20
-191.0
 30
0.0
 11
-24.0
 21
-191.0
 31
0.0
  0
LINE
  5
277
330
1F
100
AcDbEntity
  8
2
  6
Continuous
 62
     1
100
AcDbLine
 10
-22.0263466394672
 20
-219.953803801233
 30
0.0
 11
-22.9311530082559
 21
-191.0
 31
0.0
  0
LINE
  5
278
330
1F
100
AcDbEntity
  8
2
  6
Continuous
 62
     3
100
AcDbLine
 10
-24.0
 20
-189.148702704782
 30
0.0
 11
-22.9311530082559
 21
-191.0
 31
0.0
  0
LINE
  5
279
330
1F
100
AcDbEntity
  8
100
  6
Continuous
 62
     3
100
AcDbLine
 10
-23.504625
 20
-220.0
 30
0.0
 11
-24.0
 21
-204.148
 31
0.0
  0
LINE
  5
27A
330
1F
100
AcDbEntity
  8
100
  6
Continuous
 62
     3
100
AcDbLine
 10
24.0
 20
-150.0
 30
0.0
 11
24.0
 21
-204.148
 31
0.0
  0
LINE
  5
27B
330
1F
100
AcDbEntity
  8
100
  6
Continuous
 62
     3
100
AcDbLine
 10
23.504625
 20
-220.0
 30
0.0
 11
24.0
 21
-204.148
 31
0.0
  0
LINE
  5
27C
330
1F
100
AcDbEntity
  8
2
  6
Continuous
 62
     1
100
AcDbLine
 10
22.0263466394672
 20
-219.953803801233
 30
0.0
 11
22.9311530082559
 21
-191.0
 31
0.0
  0
LINE
  5
27D
330
1F
100
AcDbEntity
  8
2
  6
Continuous
 62
     3
100
AcDbLine
 10
24.0
 20
-189.148702704782
 30
0.0
 11
22.9311530082559
 21
-191.0
 31
0.0
  0
LINE
  5
27E
330
1F
100
AcDbEntity
  8
100
  6
Continuous
 62
     3
100
AcDbLine
 10
36.2601387097952
 20
-145.0
 30
0.0
 11
36.2601387097952
 21
-121.0
 31
0.0
  0
LINE
  5
27F
330
1F
100
AcDbEntity
  8
100
  6
Continuous
 62
     3
100
AcDbLine
 10
33.5
 20
-150.0
 30
0.0
 11
33.5
 21
-145.0
 31
0.0
  0
LINE
  5
280
330
1F
100
AcDbEntity
  8
100
  6
Continuous
 62
     3
100
AcDbLine
 10
29.6500000000001
 20
-112.0
 30
0.0
 11
29.6500000000001
 21
-121.0
 31
0.0
  0
LINE
  5
281
330
1F
100
AcDbEntity
  8
100
  6
Continuous
 62
     3
100
AcDbLine
 10
-36.2601387097952
 20
-145.0
 30
0.0
 11
36.2601387097952
 21
-145.0
 31
0.0
  0
LINE
  5
282
330
1F
100
AcDbEntity
  8
100
  6
Continuous
 62
     3
100
AcDbLine
 10
-25.6397899684612
 20
-145.0
 30
0.0
 11
-25.6397899684612
 21
-121.0
 31
0.0
  0
LINE
  5
283
330
1F
100
AcDbEntity
  8
100
  6
Continuous
 62
     3
100
AcDbLine
 10
0.00000000000023
 20
-145.0
 30
0.0
 11
0.0
 21
-121.0
 31
0.0
  0
LINE
  5
284
330
1F
100
AcDbEntity
  8
100
  6
Continuous
 62
     3
100
AcDbLine
 10
25.6397899684609
 20
-145.0
 30
0.0
 11
25.6397899684609
 21
-121.0
 31
0.0
  0
LINE
  5
285
330
1F
100
AcDbEntity
  8
100
  6
Continuous
 62
     3
100
AcDbLine
 10
-48.0
 20
129.0
 30
0.0
 11
-50.0
 21
131.0
 31
0.0
  0
LINE
  5
286
330
1F
100
AcDbEntity
  8
100
  6
Continuous
 62
     3
100
AcDbLine
 10
-28.8674999999998
 20
137.000000000001
 30
0.0
 11
-28.8674999999998
 21
157.999999999998
 31
0.0
  0
LINE
  5
287
330
1F
100
AcDbEntity
  8
100
  6
Continuous
 62
     3
100
AcDbLine
 10
-46.0
 20
135.0
 30
0.0
 11
-28.8674999999998
 21
137.000000000001
 31
0.0
  0
LINE
  5
288
330
1F
100
AcDbEntity
  8
100
  6
Continuous
 62
     3
100
AcDbLine
 10
28.8674999999998
 20
137.000000000001
 30
0.0
 11
28.8674999999998
 21
157.999999999998
 31
0.0
  0
LINE
  5
289
330
1F
100
AcDbEntity
  8
100
  6
Continuous
 62
     3
100
AcDbLine
 10
46.0
 20
135.0
 30
0.0
 11
28.8674999999998
 21
137.000000000001
 31
0.0
  0
LINE
  5
28A
330
1F
100
AcDbEntity
  8
100
  6
Continuous
 62
     3
100
AcDbLine
 10
48.0
 20
129.0
 30
0.0
 11
50.0
 21
131.0
 31
0.0
  0
LINE
  5
28B
330
1F
100
AcDbEntity
  8
100
  6
Continuous
 62
     3
100
AcDbLine
 10
-24.0
 20
158.0
 30
0.0
 11
-24.0
 21
193.0
 31
0.0
  0
LINE
  5
28C
330
1F
100
AcDbEntity
  8
100
  6
Continuous
 62
     3
100
AcDbLine
 10
24.0
 20
158.0
 30
0.0
 11
24.0
 21
193.0
 31
0.0
  0
LINE
  5
28D
330
1F
100
AcDbEntity
  8
100
  6
Continuous
 62
     3
100
AcDbLine
 10
12.5
 20
235.5
 30
0.0
 11
12.5
 21
193.0
 31
0.0
  0
LINE
  5
28E
330
1F
100
AcDbEntity
  8
100
  6
Continuous
 62
     3
100
AcDbLine
 10
-12.5
 20
235.5
 30
0.0
 11
-12.5
 21
193.0
 31
0.0
  0
LINE
  5
28F
330
1F
100
AcDbEntity
  8
100
  6
Continuous
 62
     3
100
AcDbLine
 10
-24.0
 20
193.0
 30
0.0
 11
24.0
 21
193.0
 31
0.0
  0
LINE
  5
290
330
1F
100
AcDbEntity
  8
100
  6
Continuous
 62
     3
100
AcDbLine
 10
-14.4337567297407
 20
137.000000000001
 30
0.0
 11
-14.4337567297407
 21
158.0
 31
0.0
  0
LINE
  5
291
330
1F
100
AcDbEntity
  8
100
  6
Continuous
 62
     3
100
AcDbLine
 10
14.4337567297407
 20
137.000000000001
 30
0.0
 11
14.4337567297407
 21
158.0
 31
0.0
  0
LINE
  5
292
330
1F
100
AcDbEntity
  8
100
  6
Continuous
 62
     3
100
AcDbLine
 10
-28.8674999999998
 20
157.999999999998
 30
0.0
 11
28.8674999999998
 21
157.999999999998
 31
0.0
  0
LINE
  5
293
330
1F
100
AcDbEntity
  8
2
  6
DOT_CENTER
 62
     1
100
AcDbLine
 10
59.8970834315847
 20
262.0
 30
0.0
 11
59.8970834315847
 21
342.0
 31
0.0
  0
LINE
  5
294
330
1F
100
AcDbEntity
  8
100
  6
Continuous
 62
     3
100
AcDbLine
 10
66.3970834315847
 20
270.5
 30
0.0
 11
66.3970834315847
 21
281.5
 31
0.0
  0
LINE
  5
295
330
1F
100
AcDbEntity
  8
100
  6
Continuous
 62
     3
100
AcDbLine
 10
53.3970834315847
 20
270.5
 30
0.0
 11
53.3970834315847
 21
281.5
 31
0.0
  0
LINE
  5
296
330
1F
100
AcDbEntity
  8
100
  6
Continuous
 62
     3
100
AcDbLine
 10
66.3970834315847
 20
281.5
 30
0.0
 11
53.3970834315847
 21
281.5
 31
0.0
  0
LINE
  5
297
330
1F
100
AcDbEntity
  8
100
  6
Continuous
 62
     3
100
AcDbLine
 10
-71.0
 20
270.5
 30
0.0
 11
71.0
 21
270.5
 31
0.0
  0
LINE
  5
298
330
1F
100
AcDbEntity
  8
100
  6
Continuous
 62
     3
100
AcDbLine
 10
71.0
 20
252.5
 30
0.0
 11
-71.0
 21
252.5
 31
0.0
  0
LINE
  5
299
330
1F
100
AcDbEntity
  8
100
  6
Continuous
 62
     3
100
AcDbLine
 10
18.5
 20
235.5
 30
0.0
 11
-18.5
 21
235.5
 31
0.0
  0
LINE
  5
29A
330
1F
100
AcDbEntity
  8
100
  6
Continuous
 62
     3
100
AcDbLine
 10
18.5
 20
242.174893943
 30
0.0
 11
18.5
 21
235.5
 31
0.0
  0
LINE
  5
29B
330
1F
100
AcDbEntity
  8
100
  6
Continuous
 62
     3
100
AcDbLine
 10
-21.0
 20
245.180635696716
 30
0.0
 11
-33.9262550776739
 21
252.5
 31
0.0
  0
LINE
  5
29C
330
1F
100
AcDbEntity
  8
100
  6
Continuous
 62
     3
100
AcDbLine
 10
-18.5
 20
242.174893943
 30
0.0
 11
-18.5
 21
235.5
 31
0.0
  0
LINE
  5
29D
330
1F
100
AcDbEntity
  8
100
  6
Continuous
 62
     3
100
AcDbLine
 10
21.0
 20
245.180635696716
 30
0.0
 11
33.9262550776739
 21
252.5
 31
0.0
  0
LINE
  5
29E
330
1F
100
AcDbEntity
  8
100
  6
Continuous
 62
     3
100
AcDbLine
 10
486.11961001462
 20
-112.0
 30
0.0
 11
486.11961001462
 21
-86.0
 31
0.0
  0
LINE
  5
29F
330
1F
100
AcDbEntity
  8
100
  6
Continuous
 62
     3
100
AcDbLine
 10
470.268343236509
 20
-112.0
 30
0.0
 11
470.268343236509
 21
-86.0
 31
0.0
  0
LINE
  5
2A0
330
1F
100
AcDbEntity
  8
100
  6
Continuous
 62
     3
100
AcDbLine
 10
377.88038998538
 20
-112.0
 30
0.0
 11
486.11961001462
 21
-112.0
 31
0.0
  0
LINE
  5
2A1
330
1F
100
AcDbEntity
  8
100
  6
Continuous
 62
     3
100
AcDbLine
 10
468.260138709795
 20
-145.0
 30
0.0
 11
468.260138709795
 21
-121.0
 31
0.0
  0
LINE
  5
2A2
330
1F
100
AcDbEntity
  8
100
  6
Continuous
 62
     3
100
AcDbLine
 10
465.5
 20
-150.0
 30
0.0
 11
465.5
 21
-145.0
 31
0.0
  0
LINE
  5
2A3
330
1F
100
AcDbEntity
  8
100
  6
Continuous
 62
     3
100
AcDbLine
 10
456.0
 20
-150.0
 30
0.0
 11
456.0
 21
-204.148
 31
0.0
  0
LINE
  5
2A4
330
1F
100
AcDbEntity
  8
100
  6
Continuous
 62
     3
100
AcDbLine
 10
461.65
 20
-112.0
 30
0.0
 11
461.65
 21
-121.0
 31
0.0
  0
LINE
  5
2A5
330
1F
100
AcDbEntity
  8
100
  6
Continuous
 62
     3
100
AcDbLine
 10
395.739861290205
 20
-121.0
 30
0.0
 11
468.260138709795
 21
-121.0
 31
0.0
  0
LINE
  5
2A6
330
1F
100
AcDbEntity
  8
100
  6
Continuous
 62
     3
100
AcDbLine
 10
455.504625
 20
-220.0
 30
0.0
 11
456.0
 21
-204.148
 31
0.0
  0
LINE
  5
2A7
330
1F
100
AcDbEntity
  8
100
  6
Continuous
 62
     3
100
AcDbLine
 10
455.504625
 20
-220.0
 30
0.0
 11
408.495375
 21
-220.0
 31
0.0
  0
LINE
  5
2A8
330
1F
100
AcDbEntity
  8
100
  6
Continuous
 62
     3
100
AcDbLine
 10
456.0
 20
-191.0
 30
0.0
 11
408.0
 21
-191.0
 31
0.0
  0
LINE
  5
2A9
330
1F
100
AcDbEntity
  8
100
  6
Continuous
 62
     3
100
AcDbLine
 10
398.5
 20
-150.0
 30
0.0
 11
465.5
 21
-150.0
 31
0.0
  0
LINE
  5
2AA
330
1F
100
AcDbEntity
  8
100
  6
Continuous
 62
     3
100
AcDbLine
 10
395.739861290205
 20
-145.0
 30
0.0
 11
468.260138709795
 21
-145.0
 31
0.0
  0
LINE
  5
2AB
330
1F
100
AcDbEntity
  8
100
  6
Continuous
 62
     3
100
AcDbLine
 10
457.639789968461
 20
-145.0
 30
0.0
 11
457.639789968461
 21
-121.0
 31
0.0
  0
LINE
  5
2AC
330
1F
100
AcDbEntity
  8
2
  6
Continuous
 62
     1
100
AcDbLine
 10
454.026346639467
 20
-219.953803801233
 30
0.0
 11
454.931153008256
 21
-191.0
 31
0.0
  0
LINE
  5
2AD
330
1F
100
AcDbEntity
  8
2
  6
Continuous
 62
     3
100
AcDbLine
 10
456.0
 20
-189.148702704782
 30
0.0
 11
454.931153008256
 21
-191.0
 31
0.0
  0
LINE
  5
2AE
330
1F
100
AcDbEntity
  8
100
  6
Continuous
 62
     3
100
AcDbLine
 10
393.731656763491
 20
-112.0
 30
0.0
 11
393.731656763491
 21
-86.0
 31
0.0
  0
LINE
  5
2AF
330
1F
100
AcDbEntity
  8
100
  6
Continuous
 62
     3
100
AcDbLine
 10
398.5
 20
-150.0
 30
0.0
 11
398.5
 21
-145.0
 31
0.0
  0
LINE
  5
2B0
330
1F
100
AcDbEntity
  8
100
  6
Continuous
 62
     3
100
AcDbLine
 10
395.739861290205
 20
-145.0
 30
0.0
 11
395.739861290205
 21
-121.0
 31
0.0
  0
LINE
  5
2B1
330
1F
100
AcDbEntity
  8
100
  6
Continuous
 62
     3
100
AcDbLine
 10
408.0
 20
-150.0
 30
0.0
 11
408.0
 21
-204.148
 31
0.0
  0
LINE
  5
2B2
330
1F
100
AcDbEntity
  8
100
  6
Continuous
 62
     3
100
AcDbLine
 10
402.35
 20
-112.0
 30
0.0
 11
402.35
 21
-121.0
 31
0.0
  0
LINE
  5
2B3
330
1F
100
AcDbEntity
  8
100
  6
Continuous
 62
     3
100
AcDbLine
 10
408.495375
 20
-220.0
 30
0.0
 11
408.0
 21
-204.148
 31
0.0
  0
LINE
  5
2B4
330
1F
100
AcDbEntity
  8
100
  6
Continuous
 62
     3
100
AcDbLine
 10
406.360210031539
 20
-145.0
 30
0.0
 11
406.360210031539
 21
-121.0
 31
0.0
  0
LINE
  5
2B5
330
1F
100
AcDbEntity
  8
2
  6
Continuous
 62
     1
100
AcDbLine
 10
409.973653360533
 20
-219.953803801233
 30
0.0
 11
409.068846991744
 21
-191.0
 31
0.0
  0
LINE
  5
2B6
330
1F
100
AcDbEntity
  8
2
  6
Continuous
 62
     3
100
AcDbLine
 10
408.0
 20
-189.148702704782
 30
0.0
 11
409.068846991744
 21
-191.0
 31
0.0
  0
LINE
  5
2B7
330
1F
100
AcDbEntity
  8
100
  6
Continuous
 62
     3
100
AcDbLine
 10
377.88038998538
 20
-112.0
 30
0.0
 11
377.88038998538
 21
-86.0
 31
0.0
  0
LINE
  5
2B8
330
1F
100
AcDbEntity
  8
2
  6
DOT_CENTER
 62
     1
100
AcDbLine
 10
432.0
 20
-232.0
 30
0.0
 11
432.0
 21
347.499999999996
 31
0.0
  0
LINE
  5
2B9
330
1F
100
AcDbEntity
  8
100
  6
Continuous
 62
     3
100
AcDbLine
 10
432.0
 20
-112.0
 30
0.0
 11
432.0
 21
-92.0
 31
0.0
  0
LINE
  5
2BA
330
1F
100
AcDbEntity
  8
100
  6
Continuous
 62
     3
100
AcDbLine
 10
432.0
 20
-145.0
 30
0.0
 11
432.0
 21
-121.0
 31
0.0
  0
LINE
  5
2BB
330
1F
100
AcDbEntity
  8
2
  6
DOT_CENTER
 62
     1
100
AcDbLine
 10
328.0
 20
0.0
 30
0.0
 11
536.0
 21
0.0
 31
0.0
  0
LINE
  5
2BC
330
1F
100
AcDbEntity
  8
2
  6
DOT_CENTER
 62
     1
100
AcDbLine
 10
397.558491087142
 20
83.1491579260158
 30
0.0
 11
409.038994058095
 21
55.4327719506772
 31
0.0
  0
LINE
  5
2BD
330
1F
100
AcDbEntity
  8
2
  6
DOT_CENTER
 62
     1
100
AcDbLine
 10
348.850842073984
 20
34.4415089128581
 30
0.0
 11
376.567228049323
 21
22.9610059419053
 31
0.0
  0
LINE
  5
2BE
330
1F
100
AcDbEntity
  8
2
  6
DOT_CENTER
 62
     1
100
AcDbLine
 10
348.850842073984
 20
-34.4415089128581
 30
0.0
 11
376.567228049323
 21
-22.9610059419053
 31
0.0
  0
LINE
  5
2BF
330
1F
100
AcDbEntity
  8
2
  6
DOT_CENTER
 62
     1
100
AcDbLine
 10
397.558491087142
 20
-83.1491579260158
 30
0.0
 11
409.038994058095
 21
-55.4327719506771
 31
0.0
  0
LINE
  5
2C0
330
1F
100
AcDbEntity
  8
100
  6
Continuous
 62
     3
100
AcDbLine
 10
377.88038998538
 20
-86.0
 30
0.0
 11
399.319730723264
 21
-86.0
 31
0.0
  0
LINE
  5
2C1
330
1F
100
AcDbEntity
  8
100
  6
Continuous
 62
     3
100
AcDbLine
 10
464.680269276736
 20
-86.0
 30
0.0
 11
486.11961001462
 21
-86.0
 31
0.0
  0
LINE
  5
2C2
330
1F
100
AcDbEntity
  8
2
  6
DOT_CENTER
 62
     1
100
AcDbLine
 10
466.441508912858
 20
83.1491579260158
 30
0.0
 11
454.961005941905
 21
55.4327719506772
 31
0.0
  0
LINE
  5
2C3
330
1F
100
AcDbEntity
  8
2
  6
DOT_CENTER
 62
     1
100
AcDbLine
 10
515.149157926016
 20
34.4415089128581
 30
0.0
 11
487.432771950677
 21
22.9610059419053
 31
0.0
  0
LINE
  5
2C4
330
1F
100
AcDbEntity
  8
2
  6
DOT_CENTER
 62
     1
100
AcDbLine
 10
515.149157926016
 20
-34.4415089128581
 30
0.0
 11
487.432771950677
 21
-22.9610059419053
 31
0.0
  0
LINE
  5
2C5
330
1F
100
AcDbEntity
  8
2
  6
DOT_CENTER
 62
     1
100
AcDbLine
 10
466.441508912858
 20
-83.1491579260158
 30
0.0
 11
454.961005941905
 21
-55.4327719506771
 31
0.0
  0
LINE
  5
2C6
330
1F
100
AcDbEntity
  8
100
  6
Continuous
 62
     3
100
AcDbLine
 10
382.0
 20
129.0
 30
0.0
 11
482.0
 21
129.0
 31
0.0
  0
LINE
  5
2C7
330
1F
100
AcDbEntity
  8
100
  6
Continuous
 62
     3
100
AcDbLine
 10
482.0
 20
97.0
 30
0.0
 11
482.0
 21
129.0
 31
0.0
  0
LINE
  5
2C8
330
1F
100
AcDbEntity
  8
100
  6
Continuous
 62
     3
100
AcDbLine
 10
471.0
 20
83.3246662159531
 30
0.0
 11
471.0
 21
97.0
 31
0.0
  0
LINE
  5
2C9
330
1F
100
AcDbEntity
  8
100
  6
Continuous
 62
     3
100
AcDbLine
 10
382.0
 20
97.0
 30
0.0
 11
482.0
 21
97.0
 31
0.0
  0
LINE
  5
2CA
330
1F
100
AcDbEntity
  8
100
  6
Continuous
 62
     3
100
AcDbLine
 10
382.0
 20
97.0
 30
0.0
 11
382.0
 21
129.0
 31
0.0
  0
LINE
  5
2CB
330
1F
100
AcDbEntity
  8
100
  6
Continuous
 62
     3
100
AcDbLine
 10
393.0
 20
83.3246662159531
 30
0.0
 11
393.0
 21
97.0
 31
0.0
  0
LINE
  5
2CC
330
1F
100
AcDbEntity
  8
100
  6
Continuous
 62
     3
100
AcDbLine
 10
384.0
 20
129.0
 30
0.0
 11
382.0
 21
131.0
 31
0.0
  0
LINE
  5
2CD
330
1F
100
AcDbEntity
  8
100
  6
Continuous
 62
     3
100
AcDbLine
 10
386.0
 20
135.0
 30
0.0
 11
407.0
 21
137.451481103167
 31
0.0
  0
LINE
  5
2CE
330
1F
100
AcDbEntity
  8
100
  6
Continuous
 62
     3
100
AcDbLine
 10
408.0
 20
158.0
 30
0.0
 11
408.0
 21
193.0
 31
0.0
  0
LINE
  5
2CF
330
1F
100
AcDbEntity
  8
100
  6
Continuous
 62
     3
100
AcDbLine
 10
419.5
 20
235.5
 30
0.0
 11
419.5
 21
193.0
 31
0.0
  0
LINE
  5
2D0
330
1F
100
AcDbEntity
  8
100
  6
Continuous
 62
     3
100
AcDbLine
 10
408.0
 20
193.0
 30
0.0
 11
456.0
 21
193.0
 31
0.0
  0
LINE
  5
2D1
330
1F
100
AcDbEntity
  8
100
  6
Continuous
 62
     3
100
AcDbLine
 10
407.0
 20
158.0
 30
0.0
 11
457.0
 21
158.0
 31
0.0
  0
LINE
  5
2D2
330
1F
100
AcDbEntity
  8
100
  6
Continuous
 62
     3
100
AcDbLine
 10
478.0
 20
135.0
 30
0.0
 11
457.0
 21
137.451481103167
 31
0.0
  0
LINE
  5
2D3
330
1F
100
AcDbEntity
  8
100
  6
Continuous
 62
     3
100
AcDbLine
 10
480.0
 20
129.0
 30
0.0
 11
482.0
 21
131.0
 31
0.0
  0
LINE
  5
2D4
330
1F
100
AcDbEntity
  8
100
  6
Continuous
 62
     3
100
AcDbLine
 10
456.0
 20
158.0
 30
0.0
 11
456.0
 21
193.0
 31
0.0
  0
LINE
  5
2D5
330
1F
100
AcDbEntity
  8
100
  6
Continuous
 62
     3
100
AcDbLine
 10
444.5
 20
235.5
 30
0.0
 11
444.5
 21
193.0
 31
0.0
  0
LINE
  5
2D6
330
1F
100
AcDbEntity
  8
100
  6
Continuous
 62
     3
100
AcDbLine
 10
407.0
 20
137.451481103167
 30
0.0
 11
407.0
 21
158.0
 31
0.0
  0
LINE
  5
2D7
330
1F
100
AcDbEntity
  8
100
  6
Continuous
 62
     3
100
AcDbLine
 10
457.0
 20
137.451481103167
 30
0.0
 11
457.0
 21
158.0
 31
0.0
  0
LINE
  5
2D8
330
1F
100
AcDbEntity
  8
100
  6
Continuous
 62
     3
100
AcDbLine
 10
432.0
 20
158.0
 30
0.0
 11
432.0
 21
137.451481103167
 31
0.0
  0
LINE
  5
2D9
330
1F
100
AcDbEntity
  8
100
  6
Continuous
 62
     3
100
AcDbLine
 10
438.5
 20
270.5
 30
0.0
 11
438.5
 21
281.5
 31
0.0
  0
LINE
  5
2DA
330
1F
100
AcDbEntity
  8
100
  6
Continuous
 62
     3
100
AcDbLine
 10
425.5
 20
270.5
 30
0.0
 11
425.5
 21
281.5
 31
0.0
  0
LINE
  5
2DB
330
1F
100
AcDbEntity
  8
100
  6
Continuous
 62
     3
100
AcDbLine
 10
438.5
 20
281.5
 30
0.0
 11
425.5
 21
281.5
 31
0.0
  0
LINE
  5
2DC
330
1F
100
AcDbEntity
  8
100
  6
Continuous
 62
     3
100
AcDbLine
 10
450.5
 20
242.174893943
 30
0.0
 11
450.5
 21
235.5
 31
0.0
  0
LINE
  5
2DD
330
1F
100
AcDbEntity
  8
100
  6
Continuous
 62
     3
100
AcDbLine
 10
503.0
 20
252.5
 30
0.0
 11
361.0
 21
252.5
 31
0.0
  0
LINE
  5
2DE
330
1F
100
AcDbEntity
  8
100
  6
Continuous
 62
     3
100
AcDbLine
 10
361.0
 20
270.5
 30
0.0
 11
503.0
 21
270.5
 31
0.0
  0
LINE
  5
2DF
330
1F
100
AcDbEntity
  8
100
  6
Continuous
 62
     3
100
AcDbLine
 10
453.0
 20
245.180635696716
 30
0.0
 11
465.926255077674
 21
252.5
 31
0.0
  0
LINE
  5
2E0
330
1F
100
AcDbEntity
  8
100
  6
Continuous
 62
     3
100
AcDbLine
 10
450.5
 20
235.5
 30
0.0
 11
413.5
 21
235.5
 31
0.0
  0
LINE
  5
2E1
330
1F
100
AcDbEntity
  8
100
  6
Continuous
 62
     3
100
AcDbLine
 10
413.5
 20
242.174893943
 30
0.0
 11
413.5
 21
235.5
 31
0.0
  0
LINE
  5
2E2
330
1F
100
AcDbEntity
  8
100
  6
Continuous
 62
     3
100
AcDbLine
 10
411.0
 20
245.180635696716
 30
0.0
 11
398.073744922326
 21
252.5
 31
0.0
  0
LINE
  5
2E3
330
1F
100
AcDbEntity
  8
100
  6
Continuous
 62
     3
100
AcDbLine
 10
53.4530459269928
 20
490.437816225967
 30
0.0
 11
19.2998337060571
 21
492.147054893445
 31
0.0
  0
LINE
  5
2E4
330
1F
100
AcDbEntity
  8
100
  6
Continuous
 62
     3
100
AcDbLine
 10
53.4530459269928
 20
469.562183774033
 30
0.0
 11
19.2998337060571
 21
467.852945106555
 31
0.0
  0
LINE
  5
2E5
330
1F
100
AcDbEntity
  8
100
  6
Continuous
 62
     3
100
AcDbLine
 10
-18.9027104570989
 20
426.607846446871
 30
0.0
 11
0.86974126585891
 21
457.212326275017
 31
0.0
  0
LINE
  5
2E6
330
1F
100
AcDbEntity
  8
100
  6
Continuous
 62
     3
100
AcDbLine
 10
-36.7876061112198
 20
436.933695767206
 30
0.0
 11
-20.169574971916
 21
469.359381168462
 31
0.0
  0
LINE
  5
2E7
330
1F
100
AcDbEntity
  8
100
  6
Continuous
 62
     3
100
AcDbLine
 10
-36.78760611122
 20
523.066304232794
 30
0.0
 11
-20.1695749719161
 21
490.640618831538
 31
0.0
  0
LINE
  5
2E8
330
1F
100
AcDbEntity
  8
100
  6
Continuous
 62
     3
100
AcDbLine
 10
-18.9027104570989
 20
533.392153553129
 30
0.0
 11
0.86974126585892
 21
502.787673724983
 31
0.0
  0
LINE
  5
2E9
330
1F
100
AcDbEntity
  8
2
  6
DOT_CENTER
 62
     1
100
AcDbLine
 10
-127.0
 20
480.0
 30
0.0
 11
127.0
 21
480.0
 31
0.0
  0
LINE
  5
2EA
330
1F
100
AcDbEntity
  8
2
  6
DOT_CENTER
 62
     1
100
AcDbLine
 10
0.0
 20
388.0
 30
0.0
 11
0.0
 21
572.0
 31
0.0
  0
LINE
  5
2EB
330
1F
100
AcDbEntity
  8
2
  6
DOT_CENTER
 62
     1
100
AcDbLine
 10
60.0000000000001
 20
468.0
 30
0.0
 11
60.0000000000001
 21
492.0
 31
0.0
  0
LINE
  5
2EC
330
1F
100
AcDbEntity
  8
100
  6
Continuous
 62
     3
100
AcDbLine
 10
115.0
 20
388.0
 30
0.0
 11
115.0
 21
572.0
 31
0.0
  0
LINE
  5
2ED
330
1F
100
AcDbEntity
  8
100
  6
Continuous
 62
     3
100
AcDbLine
 10
97.0
 20
388.0
 30
0.0
 11
115.0
 21
388.0
 31
0.0
  0
LINE
  5
2EE
330
1F
100
AcDbEntity
  8
100
  6
Continuous
 62
     3
100
AcDbLine
 10
97.0
 20
431.5
 30
0.0
 11
67.6904254647991
 21
437.36191490704
 31
0.0
  0
LINE
  5
2EF
330
1F
100
AcDbEntity
  8
100
  6
Continuous
 62
     3
100
AcDbLine
 10
97.0
 20
388.0
 30
0.0
 11
97.0
 21
572.0
 31
0.0
  0
LINE
  5
2F0
330
1F
100
AcDbEntity
  8
100
  6
Continuous
 62
     3
100
AcDbLine
 10
97.0
 20
572.0
 30
0.0
 11
115.0
 21
572.0
 31
0.0
  0
LINE
  5
2F1
330
1F
100
AcDbEntity
  8
100
  6
Continuous
 62
     3
100
AcDbLine
 10
97.0
 20
528.5
 30
0.0
 11
67.6904254647991
 21
522.63808509296
 31
0.0
  0
LINE
  5
2F2
330
1F
100
AcDbEntity
  8
100
  6
Continuous
 62
     3
100
AcDbLine
 10
-115.0
 20
388.0
 30
0.0
 11
-115.0
 21
572.0
 31
0.0
  0
LINE
  5
2F3
330
1F
100
AcDbEntity
  8
100
  6
Continuous
 62
     3
100
AcDbLine
 10
-97.0
 20
528.5
 30
0.0
 11
-67.6904254647991
 21
522.63808509296
 31
0.0
  0
LINE
  5
2F4
330
1F
100
AcDbEntity
  8
100
  6
Continuous
 62
     3
100
AcDbLine
 10
-97.0
 20
572.0
 30
0.0
 11
-115.0
 21
572.0
 31
0.0
  0
LINE
  5
2F5
330
1F
100
AcDbEntity
  8
100
  6
Continuous
 62
     3
100
AcDbLine
 10
-97.0
 20
388.0
 30
0.0
 11
-97.0
 21
572.0
 31
0.0
  0
LINE
  5
2F6
330
1F
100
AcDbEntity
  8
100
  6
Continuous
 62
     3
100
AcDbLine
 10
-97.0
 20
431.5
 30
0.0
 11
-67.6904254647991
 21
437.36191490704
 31
0.0
  0
LINE
  5
2F7
330
1F
100
AcDbEntity
  8
100
  6
Continuous
 62
     3
100
AcDbLine
 10
-97.0
 20
388.0
 30
0.0
 11
-115.0
 21
388.0
 31
0.0
  0
LINE
  5
2F8
330
1F
100
AcDbEntity
  8
100
  6
Continuous
 62
     3
100
AcDbLine
 10
21.9304166092402
 20
492.015404201644
 30
0.0
 11
14.4337567297406
 21
505.0
 31
0.0
  0
LINE
  5
2F9
330
1F
100
AcDbEntity
  8
100
  6
Continuous
 62
     3
100
AcDbLine
 10
14.4337567297406
 20
505.0
 30
0.0
 11
-0.55956302925844
 21
505.0
 31
0.0
  0
LINE
  5
2FA
330
1F
100
AcDbEntity
  8
100
  6
Continuous
 62
     3
100
AcDbLine
 10
-21.3708535799817
 20
492.984595798356
 30
0.0
 11
-28.8675134594813
 21
480.0
 31
0.0
  0
LINE
  5
2FB
330
1F
100
AcDbEntity
  8
100
  6
Continuous
 62
     3
100
AcDbLine
 10
-28.8675134594813
 20
480.0
 30
0.0
 11
-21.3708535799817
 21
467.015404201644
 31
0.0
  0
LINE
  5
2FC
330
1F
100
AcDbEntity
  8
100
  6
Continuous
 62
     3
100
AcDbLine
 10
-0.55956302925846
 20
455.0
 30
0.0
 11
14.4337567297406
 21
455.0
 31
0.0
  0
LINE
  5
2FD
330
1F
100
AcDbEntity
  8
100
  6
Continuous
 62
     3
100
AcDbLine
 10
14.4337567297406
 20
455.0
 30
0.0
 11
21.9304166092401
 21
467.984595798356
 31
0.0
  0
LINE
  5
2FE
330
1F
100
AcDbEntity
  8
100
  6
Continuous
 62
     3
100
AcDbLine
 10
-46.9574275274955
 20
522.0
 30
0.0
 11
-36.2411295533533
 21
522.0
 31
0.0
  0
LINE
  5
2FF
330
1F
100
AcDbEntity
  8
100
  6
Continuous
 62
     3
100
AcDbLine
 10
27.1293199325011
 20
522.0
 30
0.0
 11
46.9574275274956
 21
522.0
 31
0.0
  0
LINE
  5
300
330
1F
100
AcDbEntity
  8
100
  6
Continuous
 62
     3
100
AcDbLine
 10
-46.9574275274955
 20
438.0
 30
0.0
 11
-36.241129553353
 21
438.0
 31
0.0
  0
LINE
  5
301
330
1F
100
AcDbEntity
  8
100
  6
Continuous
 62
     3
100
AcDbLine
 10
27.1293199325011
 20
438.0
 30
0.0
 11
46.9574275274955
 21
438.0
 31
0.0
  0
LINE
  5
302
330
1F
100
AcDbEntity
  8
2
  6
PHANTOM
 62
     6
100
AcDbLine
 10
-21.0
 20
207.680635696716
 30
0.0
 11
-33.9262550776739
 21
215.0
 31
0.0
  0
LINE
  5
303
330
1F
100
AcDbEntity
  8
2
  6
PHANTOM
 62
     6
100
AcDbLine
 10
-18.5
 20
204.674893943
 30
0.0
 11
-18.5
 21
198.0
 31
0.0
  0
LINE
  5
304
330
1F
100
AcDbEntity
  8
2
  6
PHANTOM
 62
     6
100
AcDbLine
 10
18.5
 20
198.0
 30
0.0
 11
-18.5
 21
198.0
 31
0.0
  0
LINE
  5
305
330
1F
100
AcDbEntity
  8
2
  6
PHANTOM
 62
     6
100
AcDbLine
 10
18.5
 20
204.674893943
 30
0.0
 11
18.5
 21
198.0
 31
0.0
  0
LINE
  5
306
330
1F
100
AcDbEntity
  8
2
  6
PHANTOM
 62
     6
100
AcDbLine
 10
21.0
 20
207.680635696716
 30
0.0
 11
33.9262550776739
 21
215.0
 31
0.0
  0
LINE
  5
307
330
1F
100
AcDbEntity
  8
2
  6
PHANTOM
 62
     6
100
AcDbLine
 10
66.3970834315847
 20
233.0
 30
0.0
 11
66.3970834315847
 21
244.0
 31
0.0
  0
LINE
  5
308
330
1F
100
AcDbEntity
  8
2
  6
PHANTOM
 62
     6
100
AcDbLine
 10
53.3970834315847
 20
233.0
 30
0.0
 11
53.3970834315847
 21
244.0
 31
0.0
  0
LINE
  5
309
330
1F
100
AcDbEntity
  8
2
  6
PHANTOM
 62
     6
100
AcDbLine
 10
-71.0
 20
233.0
 30
0.0
 11
-7.48331477354782
 21
233.0
 31
0.0
  0
LINE
  5
30A
330
1F
100
AcDbEntity
  8
2
  6
PHANTOM
 62
     6
100
AcDbLine
 10
7.48331477354782
 20
233.0
 30
0.0
 11
53.3970834315847
 21
233.0
 31
0.0
  0
LINE
  5
30B
330
1F
100
AcDbEntity
  8
2
  6
PHANTOM
 62
     6
100
AcDbLine
 10
66.3970834315847
 20
233.0
 30
0.0
 11
71.0
 21
233.0
 31
0.0
  0
LINE
  5
30C
330
1F
100
AcDbEntity
  8
2
  6
PHANTOM
 62
     6
100
AcDbLine
 10
71.0
 20
215.0
 30
0.0
 11
33.9262550776739
 21
215.0
 31
0.0
  0
LINE
  5
30D
330
1F
100
AcDbEntity
  8
2
  6
PHANTOM
 62
     6
100
AcDbLine
 10
-33.9262550776739
 20
215.0
 30
0.0
 11
-71.0
 21
215.0
 31
0.0
  0
LINE
  5
30E
330
1F
100
AcDbEntity
  8
2
  6
DOT_CENTER
 62
     1
100
AcDbLine
 10
0.0
 20
-232.0
 30
0.0
 11
0.0
 21
-12.7424218848148
 31
0.0
  0
LINE
  5
30F
330
1F
100
AcDbEntity
  8
2
  6
DOT_CENTER
 62
     1
100
AcDbLine
 10
0.0
 20
25.3415291645343
 30
0.0
 11
0.0
 21
289.5
 31
0.0
  0
LINE
  5
310
330
1F
100
AcDbEntity
  8
100
  6
Continuous
 62
     3
100
AcDbLine
 10
-28.8674999999998
 20
137.000000000001
 30
0.0
 11
28.8674999999998
 21
137.000000000001
 31
0.0
  0
LINE
  5
311
330
1F
100
AcDbEntity
  8
100
  6
Continuous
 62
     3
100
AcDbLine
 10
-18.5
 20
242.174893943
 30
0.0
 11
18.5
 21
242.174893943
 31
0.0
  0
LINE
  5
312
330
1F
100
AcDbEntity
  8
100
  6
Continuous
 62
     3
100
AcDbLine
 10
393.0
 20
-86.0
 30
0.0
 11
393.0
 21
-83.3246662159531
 31
0.0
  0
LINE
  5
313
330
1F
100
AcDbEntity
  8
100
  6
Continuous
 62
     3
100
AcDbLine
 10
471.0
 20
-86.0
 30
0.0
 11
471.0
 21
-83.3246662159531
 31
0.0
  0
LINE
  5
314
330
1F
100
AcDbEntity
  8
100
  6
Continuous
 62
     3
100
AcDbLine
 10
407.0
 20
137.451481103167
 30
0.0
 11
457.0
 21
137.451481103167
 31
0.0
  0
LINE
  5
315
330
1F
100
AcDbEntity
  8
100
  6
Continuous
 62
     3
100
AcDbLine
 10
407.0
 20
158.0
 30
0.0
 11
457.0
 21
158.0
 31
0.0
  0
LINE
  5
316
330
1F
100
AcDbEntity
  8
100
  6
Continuous
 62
     3
100
AcDbLine
 10
413.5
 20
242.174893943
 30
0.0
 11
450.5
 21
242.174893943
 31
0.0
  0
LINE
  5
317
330
1F
100
AcDbEntity
  8
100
  6
Continuous
 62
     3
100
AcDbLine
 10
115.0
 20
-92.0
 30
0.0
 11
115.0
 21
92.0
 31
0.0
  0
ARC
  5
31F
330
1F
100
AcDbEntity
  8
100
  6
Continuous
 62
     3
100
AcDbCircle
 10
0.0
 20
57.4856819162665
 30
0.0
 40
120.0000000000001
100
AcDbArc
 50
238.1990650383885
 51
247.856779298552
  0
ARC
  5
320
330
1F
100
AcDbEntity
  8
100
  6
Continuous
 62
     3
100
AcDbCircle
 10
0.0
 20
57.4856819162665
 30
0.0
 40
120.0
100
AcDbArc
 50
292.1432207014481
 51
301.8009349616114
  0
ARC
  5
321
330
1F
100
AcDbEntity
  8
100
  6
Continuous
 62
     3
100
AcDbCircle
 10
49.0
 20
-62.9261115260704
 30
0.0
 40
10.00000000000004
100
AcDbArc
 50
112.1432207014476
 51
180.0
  0
ARC
  5
322
330
1F
100
AcDbEntity
  8
100
  6
Continuous
 62
     3
100
AcDbCircle
 10
-49.0
 20
-62.9261115260705
 30
0.0
 40
10.0
100
AcDbArc
 50
0.0
 51
67.85677929855173
  0
ARC
  5
323
330
1F
100
AcDbEntity
  8
100
  6
Continuous
 62
     3
100
AcDbCircle
 10
-68.5060563343247
 20
-52.9992502940505
 30
0.0
 40
9.999999999999899
100
AcDbArc
 50
58.19906503838885
 51
101.3099324740206
  0
ARC
  5
324
330
1F
100
AcDbEntity
  8
100
  6
Continuous
 62
     3
100
AcDbCircle
 10
68.5060563343247
 20
-52.9992502940505
 30
0.0
 40
10.00000000000001
100
AcDbArc
 50
78.69006752597943
 51
121.8009349616121
  0
ARC
  5
325
330
1F
100
AcDbEntity
  8
100
  6
Continuous
 62
     3
100
AcDbCircle
 10
0.0
 20
-57.4856819162665
 30
0.0
 40
120.0
100
AcDbArc
 50
112.1432207014481
 51
121.8009349616115
  0
ARC
  5
326
330
1F
100
AcDbEntity
  8
100
  6
Continuous
 62
     3
100
AcDbCircle
 10
0.0
 20
-57.4856819162665
 30
0.0
 40
120.0000000000001
100
AcDbArc
 50
58.19906503838851
 51
67.85677929855193
  0
ARC
  5
327
330
1F
100
AcDbEntity
  8
100
  6
Continuous
 62
     3
100
AcDbCircle
 10
68.5060563343247
 20
52.9992502940505
 30
0.0
 40
9.999999999999952
100
AcDbArc
 50
238.1990650383884
 51
281.3099324740206
  0
ARC
  5
328
330
1F
100
AcDbEntity
  8
100
  6
Continuous
 62
     3
100
AcDbCircle
 10
49.0
 20
62.9261115260704
 30
0.0
 40
10.0
100
AcDbArc
 50
180.0
 51
247.8567792985522
  0
ARC
  5
329
330
1F
100
AcDbEntity
  8
100
  6
Continuous
 62
     3
100
AcDbCircle
 10
-49.0
 20
62.9261115260704
 30
0.0
 40
10.00000000000004
100
AcDbArc
 50
292.1432207014475
 51
0.0
  0
ARC
  5
32A
330
1F
100
AcDbEntity
  8
100
  6
Continuous
 62
     3
100
AcDbCircle
 10
-68.5060563343247
 20
52.9992502940505
 30
0.0
 40
10.00000000000001
100
AcDbArc
 50
258.6900675259794
 51
301.8009349616113
  0
ARC
  5
32B
330
1F
100
AcDbEntity
  8
100
  6
Continuous
 62
     3
100
AcDbCircle
 10
-20.012628907454
 20
-16.0
 30
0.0
 40
39.99999999999995
100
AcDbArc
 50
211.3334406559596
 51
270.0
  0
ARC
  5
32C
330
1F
100
AcDbEntity
  8
100
  6
Continuous
 62
     3
100
AcDbCircle
 10
-20.012628907454
 20
16.0
 30
0.0
 40
40.00000000000001
100
AcDbArc
 50
93.04268484433969
 51
148.6665593440404
  0
ARC
  5
32D
330
1F
100
AcDbEntity
  8
100
  6
Continuous
 62
     3
100
AcDbCircle
 10
20.012628907454
 20
16.0
 30
0.0
 40
39.99999999999991
100
AcDbArc
 50
31.33344065595978
 51
86.95731515566045
  0
ARC
  5
32E
330
1F
100
AcDbEntity
  8
100
  6
Continuous
 62
     3
100
AcDbCircle
 10
20.012628907454
 20
-16.0
 30
0.0
 40
40.0
100
AcDbArc
 50
270.0
 51
328.6665593440404
  0
ARC
  5
32F
330
1F
100
AcDbEntity
  8
100
  6
Continuous
 62
     3
100
AcDbCircle
 10
-46.0
 20
131.0
 30
0.0
 40
4.0
100
AcDbArc
 50
90.0
 51
180.0
  0
ARC
  5
330
330
1F
100
AcDbEntity
  8
100
  6
Continuous
 62
     3
100
AcDbCircle
 10
46.0
 20
131.0
 30
0.0
 40
4.0
100
AcDbArc
 50
0.0
 51
90.0
  0
ARC
  5
331
330
1F
100
AcDbEntity
  8
100
  6
Continuous
 62
     3
100
AcDbCircle
 10
71.0
 20
261.5
 30
0.0
 40
9.0
100
AcDbArc
 50
270.0
 51
90.0
  0
ARC
  5
332
330
1F
100
AcDbEntity
  8
100
  6
Continuous
 62
     3
100
AcDbCircle
 10
84.8954284483253
 20
289.103369755683
 30
0.0
 40
20.0
100
AcDbArc
 50
155.6001486316024
 51
202.3441195672619
  0
ARC
  5
333
330
1F
100
AcDbEntity
  8
100
  6
Continuous
 62
     3
100
AcDbCircle
 10
34.8987384148444
 20
289.103369755683
 30
0.0
 40
19.99999999999988
100
AcDbArc
 50
337.6558804327378
 51
24.39985136839749
  0
ARC
  5
334
330
1F
100
AcDbEntity
  8
100
  6
Continuous
 62
     3
100
AcDbCircle
 10
33.8970834315847
 20
312.237085530576
 30
0.0
 40
36.00000000000041
100
AcDbArc
 50
335.6001486316024
 51
37.80065058771935
  0
ARC
  5
335
330
1F
100
AcDbEntity
  8
100
  6
Continuous
 62
     3
100
AcDbCircle
 10
59.8970834315847
 20
332.405225681378
 30
0.0
 40
3.094774318622641
100
AcDbArc
 50
37.80065058771319
 51
142.1993494122833
  0
ARC
  5
336
330
1F
100
AcDbEntity
  8
100
  6
Continuous
 62
     3
100
AcDbCircle
 10
85.8970834315847
 20
312.237085530576
 30
0.0
 40
36.0
100
AcDbArc
 50
142.1993494122804
 51
204.3998513683979
  0
ARC
  5
337
330
1F
100
AcDbEntity
  8
100
  6
Continuous
 62
     3
100
AcDbCircle
 10
12.9391695017991
 20
249.3374469715
 30
0.0
 40
9.067800268852176
100
AcDbArc
 50
307.8248878047893
 51
20.41194167580332
  0
ARC
  5
338
330
1F
100
AcDbEntity
  8
100
  6
Continuous
 62
     3
100
AcDbCircle
 10
-71.0
 20
261.5
 30
0.0
 40
9.0
100
AcDbArc
 50
90.0
 51
270.0
  0
ARC
  5
339
330
1F
100
AcDbEntity
  8
100
  6
Continuous
 62
     3
100
AcDbCircle
 10
0.0
 20
270.0
 30
0.0
 40
7.499999999999937
100
AcDbArc
 50
3.82255372927438
 51
176.1774462707256
  0
ARC
  5
33A
330
1F
100
AcDbEntity
  8
100
  6
Continuous
 62
     3
100
AcDbCircle
 10
-12.9391695017991
 20
249.3374469715
 30
0.0
 40
9.067800268852556
100
AcDbArc
 50
159.5880583241976
 51
232.1751121952107
  0
ARC
  5
33B
330
1F
100
AcDbEntity
  8
100
  6
Continuous
 62
     3
100
AcDbCircle
 10
386.0
 20
131.0
 30
0.0
 40
4.0
100
AcDbArc
 50
90.0
 51
180.0
  0
ARC
  5
33C
330
1F
100
AcDbEntity
  8
100
  6
Continuous
 62
     3
100
AcDbCircle
 10
478.0
 20
131.0
 30
0.0
 40
4.0
100
AcDbArc
 50
0.0
 51
90.0
  0
ARC
  5
33D
330
1F
100
AcDbEntity
  8
100
  6
Continuous
 62
     3
100
AcDbCircle
 10
503.0
 20
261.5
 30
0.0
 40
9.0
100
AcDbArc
 50
270.0
 51
90.0
  0
ARC
  5
33E
330
1F
100
AcDbEntity
  8
100
  6
Continuous
 62
     3
100
AcDbCircle
 10
456.998345016741
 20
289.103369755683
 30
0.0
 40
20.00000000000018
100
AcDbArc
 50
155.6001486316026
 51
202.3441195672615
  0
ARC
  5
33F
330
1F
100
AcDbEntity
  8
100
  6
Continuous
 62
     3
100
AcDbCircle
 10
407.00165498326
 20
289.103369755683
 30
0.0
 40
19.99999999999963
100
AcDbArc
 50
337.6558804327375
 51
24.39985136839737
  0
ARC
  5
340
330
1F
100
AcDbEntity
  8
100
  6
Continuous
 62
     3
100
AcDbCircle
 10
406.0
 20
312.237085530576
 30
0.0
 40
36.00000000000057
100
AcDbArc
 50
335.6001486316025
 51
37.80065058771878
  0
ARC
  5
341
330
1F
100
AcDbEntity
  8
100
  6
Continuous
 62
     3
100
AcDbCircle
 10
458.0
 20
312.237085530576
 30
0.0
 40
36.0000000000007
100
AcDbArc
 50
142.1993494122812
 51
204.3998513683981
  0
ARC
  5
342
330
1F
100
AcDbEntity
  8
100
  6
Continuous
 62
     3
100
AcDbCircle
 10
444.939169501799
 20
249.3374469715
 30
0.0
 40
9.067800268852254
100
AcDbArc
 50
307.82488780479
 51
20.41194167580258
  0
ARC
  5
343
330
1F
100
AcDbEntity
  8
100
  6
Continuous
 62
     3
100
AcDbCircle
 10
361.0
 20
261.5
 30
0.0
 40
9.0
100
AcDbArc
 50
90.0
 51
270.0
  0
ARC
  5
344
330
1F
100
AcDbEntity
  8
100
  6
Continuous
 62
     3
100
AcDbCircle
 10
419.060830498201
 20
249.3374469715
 30
0.0
 40
9.067800268852496
100
AcDbArc
 50
159.5880583241974
 51
232.17511219521
  0
ARC
  5
345
330
1F
100
AcDbEntity
  8
100
  6
Continuous
 62
     3
100
AcDbCircle
 10
432.0
 20
332.405225681378
 30
0.0
 40
3.094774318623101
100
AcDbArc
 50
37.80065058770657
 51
142.1993494122934
  0
ARC
  5
346
330
1F
100
AcDbEntity
  8
100
  6
Continuous
 62
     3
100
AcDbCircle
 10
432.0
 20
270.0
 30
0.0
 40
7.500000000000105
100
AcDbArc
 50
3.82255372927429
 51
29.92643486661479
  0
ARC
  5
347
330
1F
100
AcDbEntity
  8
100
  6
Continuous
 62
     3
100
AcDbCircle
 10
432.0
 20
270.0
 30
0.0
 40
7.500000000000041
100
AcDbArc
 50
150.0735651333852
 51
176.1774462707257
  0
ARC
  5
348
330
1F
100
AcDbEntity
  8
100
  6
Continuous
 62
     3
100
AcDbCircle
 10
-41.2372797512803
 20
439.214135307503
 30
0.0
 40
5.000000000000286
100
AcDbArc
 50
224.6846753836741
 51
332.865045981796
  0
ARC
  5
349
330
1F
100
AcDbEntity
  8
100
  6
Continuous
 62
     3
100
AcDbCircle
 10
-14.7029550633767
 20
423.894535806177
 30
0.0
 40
5.000000000000218
100
AcDbArc
 50
147.1349540182042
 51
255.3153246163273
  0
ARC
  5
34A
330
1F
100
AcDbEntity
  8
100
  6
Continuous
 62
     3
100
AcDbCircle
 10
-41.2372797512803
 20
520.785864692497
 30
0.0
 40
4.999999999999762
100
AcDbArc
 50
27.13495401820569
 51
135.3153246163203
  0
ARC
  5
34B
330
1F
100
AcDbEntity
  8
100
  6
Continuous
 62
     3
100
AcDbCircle
 10
-14.7029550633767
 20
536.105464193823
 30
0.0
 40
4.999999999999734
100
AcDbArc
 50
104.6846753836731
 51
212.8650459817953
  0
ARC
  5
34C
330
1F
100
AcDbEntity
  8
100
  6
Continuous
 62
     3
100
AcDbCircle
 10
0.0
 20
480.0
 30
0.0
 40
20.99999999999982
100
AcDbArc
 50
41.24359268159121
 51
78.7564073184086
  0
ARC
  5
34D
330
1F
100
AcDbEntity
  8
100
  6
Continuous
 62
     3
100
AcDbCircle
 10
0.0
 20
480.0
 30
0.0
 40
20.99999999999998
100
AcDbArc
 50
281.2435926815914
 51
318.7564073184092
  0
ARC
  5
34E
330
1F
100
AcDbEntity
  8
100
  6
Continuous
 62
     3
100
AcDbCircle
 10
0.0
 20
480.0
 30
0.0
 40
21.00000000000002
100
AcDbArc
 50
161.243592681591
 51
198.7564073184089
  0
ARC
  5
34F
330
1F
100
AcDbEntity
  8
100
  6
Continuous
 62
     3
100
AcDbCircle
 10
-24.6192486119765
 20
488.360179291241
 30
0.0
 40
5.000000000000023
100
AcDbArc
 50
341.2435926815921
 51
27.13495401820457
  0
ARC
  5
350
330
1F
100
AcDbEntity
  8
100
  6
Continuous
 62
     3
100
AcDbCircle
 10
-24.6192486119765
 20
471.639820708759
 30
0.0
 40
4.999999999999917
100
AcDbArc
 50
332.865045981796
 51
18.75640731840828
  0
ARC
  5
351
330
1F
100
AcDbEntity
  8
100
  6
Continuous
 62
     3
100
AcDbCircle
 10
5.06949665958103
 20
454.499015634323
 30
0.0
 40
5.00000000000016
100
AcDbArc
 50
101.243592681591
 51
147.1349540182036
  0
ARC
  5
352
330
1F
100
AcDbEntity
  8
100
  6
Continuous
 62
     3
100
AcDbCircle
 10
19.5497519523954
 20
462.859194925564
 30
0.0
 40
5.00000000000006
100
AcDbArc
 50
92.86504598179293
 51
138.7564073184055
  0
ARC
  5
353
330
1F
100
AcDbEntity
  8
100
  6
Continuous
 62
     3
100
AcDbCircle
 10
19.5497519523954
 20
497.140805074436
 30
0.0
 40
5.00000000000016
100
AcDbArc
 50
221.243592681593
 51
267.1349540182071
  0
ARC
  5
354
330
1F
100
AcDbEntity
  8
100
  6
Continuous
 62
     3
100
AcDbCircle
 10
5.06949665958112
 20
505.500984365677
 30
0.0
 40
5.000000000000218
100
AcDbArc
 50
212.8650459817958
 51
258.7564073184079
  0
ARC
  5
355
330
1F
100
AcDbEntity
  8
100
  6
Continuous
 62
     3
100
AcDbCircle
 10
67.502161323155
 20
480.0
 30
0.0
 40
17.50216132315489
100
AcDbArc
 50
99.10395102072893
 51
260.8960489792707
  0
ARC
  5
356
330
1F
100
AcDbEntity
  8
100
  6
Continuous
 62
     3
100
AcDbCircle
 10
0.0
 20
480.0
 30
0.0
 40
63.00000000000095
100
AcDbArc
 50
255.3153246163281
 51
345.0980197203993
  0
ARC
  5
357
330
1F
100
AcDbEntity
  8
100
  6
Continuous
 62
     3
100
AcDbCircle
 10
0.0
 20
480.0
 30
0.0
 40
62.99999999999975
100
AcDbArc
 50
135.3153258725007
 51
224.6846768927555
  0
ARC
  5
358
330
1F
100
AcDbEntity
  8
100
  6
Continuous
 62
     3
100
AcDbCircle
 10
0.0
 20
480.0
 30
0.0
 40
63.00000000000007
100
AcDbArc
 50
14.90198027960094
 51
104.6846763178731
  0
ARC
  5
359
330
1F
100
AcDbEntity
  8
100
  6
Continuous
 62
     3
100
AcDbCircle
 10
0.0
 20
480.0
 30
0.0
 40
24.0
100
AcDbArc
 50
180.0
 51
209.7932527764181
  0
ARC
  5
35A
330
1F
100
AcDbEntity
  8
100
  6
Continuous
 62
     3
100
AcDbCircle
 10
0.0
 20
480.0
 30
0.0
 40
24.00000000000039
100
AcDbArc
 50
270.2067472235815
 51
329.7932527764203
  0
ARC
  5
35B
330
1F
100
AcDbEntity
  8
100
  6
Continuous
 62
     3
100
AcDbCircle
 10
0.0
 20
480.0
 30
0.0
 40
24.00000000000023
100
AcDbArc
 50
30.20674722358254
 51
89.79325277641841
  0
ARC
  5
35C
330
1F
100
AcDbEntity
  8
100
  6
Continuous
 62
     3
100
AcDbCircle
 10
0.0
 20
480.0
 30
0.0
 40
23.99999999999998
100
AcDbArc
 50
150.2067472235819
 51
180.0
  0
ARC
  5
35D
330
1F
100
AcDbEntity
  8
100
  6
Continuous
 62
     3
100
AcDbCircle
 10
0.0
 20
480.0
 30
0.0
 40
50.00000000000006
100
AcDbArc
 50
12.31962296338569
 51
107.6803770366142
  0
ARC
  5
35E
330
1F
100
AcDbEntity
  8
100
  6
Continuous
 62
     3
100
AcDbCircle
 10
0.0
 20
480.0
 30
0.0
 40
50.00000000000014
100
AcDbArc
 50
132.3196229633854
 51
227.6803770366147
  0
ARC
  5
35F
330
1F
100
AcDbEntity
  8
100
  6
Continuous
 62
     3
100
AcDbCircle
 10
0.0
 20
480.0
 30
0.0
 40
50.00000000000031
100
AcDbArc
 50
252.3196229633857
 51
347.6803770366143
  0
ARC
  5
360
330
1F
100
AcDbEntity
  8
2
  6
PHANTOM
 62
     6
100
AcDbCircle
 10
-71.0
 20
224.0
 30
0.0
 40
9.0
100
AcDbArc
 50
90.0
 51
270.0
  0
ARC
  5
361
330
1F
100
AcDbEntity
  8
2
  6
PHANTOM
 62
     6
100
AcDbCircle
 10
0.0
 20
232.5
 30
0.0
 40
7.499999999999937
100
AcDbArc
 50
3.82255372927438
 51
176.1774462707256
  0
ARC
  5
362
330
1F
100
AcDbEntity
  8
2
  6
PHANTOM
 62
     6
100
AcDbCircle
 10
-12.9391695017991
 20
211.8374469715
 30
0.0
 40
9.067800268852796
100
AcDbArc
 50
207.2958075030639
 51
232.1751121952107
  0
ARC
  5
363
330
1F
100
AcDbEntity
  8
2
  6
PHANTOM
 62
     6
100
AcDbCircle
 10
12.9391695017991
 20
211.8374469715
 30
0.0
 40
9.067800268852176
100
AcDbArc
 50
307.8248878047893
 51
332.7041924969341
  0
ARC
  5
364
330
1F
100
AcDbEntity
  8
2
  6
PHANTOM
 62
     6
100
AcDbCircle
 10
71.0
 20
224.0
 30
0.0
 40
9.0
100
AcDbArc
 50
270.0
 51
90.0
  0
ARC
  5
365
330
1F
100
AcDbEntity
  8
2
  6
PHANTOM
 62
     6
100
AcDbCircle
 10
84.8954284483253
 20
251.603369755683
 30
0.0
 40
20.0
100
AcDbArc
 50
155.6001486316024
 51
202.3441195672619
  0
ARC
  5
366
330
1F
100
AcDbEntity
  8
2
  6
PHANTOM
 62
     6
100
AcDbCircle
 10
34.8987384148444
 20
251.603369755683
 30
0.0
 40
19.99999999999988
100
AcDbArc
 50
337.6558804327378
 51
24.39985136839749
  0
ARC
  5
367
330
1F
100
AcDbEntity
  8
2
  6
PHANTOM
 62
     6
100
AcDbCircle
 10
33.8970834315847
 20
274.737085530576
 30
0.0
 40
36.00000000000041
100
AcDbArc
 50
335.6001486316024
 51
37.80065058771935
  0
ARC
  5
368
330
1F
100
AcDbEntity
  8
2
  6
PHANTOM
 62
     6
100
AcDbCircle
 10
85.8970834315847
 20
274.737085530576
 30
0.0
 40
36.00000000000016
100
AcDbArc
 50
142.1993494122806
 51
204.3998513683979
  0
ARC
  5
369
330
1F
100
AcDbEntity
  8
2
  6
PHANTOM
 62
     6
100
AcDbCircle
 10
59.8970834315847
 20
294.905225681378
 30
0.0
 40
3.094774318622641
100
AcDbArc
 50
37.80065058771319
 51
142.1993494122856
  0
ARC
  5
36A
330
1F
100
AcDbEntity
  8
100
  6
Continuous
 62
     3
100
AcDbCircle
 10
6.2681818181818
 20
0.0
 30
0.0
 40
70.76818181818176
100
AcDbArc
 50
148.6665593440403
 51
170.2373130319769
  0
ARC
  5
36B
330
1F
100
AcDbEntity
  8
100
  6
Continuous
 62
     3
100
AcDbCircle
 10
6.2681818181818
 20
0.0
 30
0.0
 40
70.76818181818177
100
AcDbArc
 50
189.7626869680231
 51
211.3334406559597
  0
ARC
  5
36C
330
1F
100
AcDbEntity
  8
100
  6
Continuous
 62
     3
100
AcDbCircle
 10
-6.2681818181818
 20
0.0
 30
0.0
 40
70.76818181818177
100
AcDbArc
 50
9.76268696802311
 51
31.3334406559598
  0
ARC
  5
36D
330
1F
100
AcDbEntity
  8
100
  6
Continuous
 62
     3
100
AcDbCircle
 10
-6.2681818181818
 20
0.0
 30
0.0
 40
70.76818181818176
100
AcDbArc
 50
328.6665593440403
 51
350.2373130319769
  0
CIRCLE
  5
36E
330
1F
100
AcDbEntity
  8
100
  6
Continuous
 62
     3
100
AcDbCircle
 10
403.298742572618
 20
69.2909649383465
 30
0.0
 40
9.5
  0
CIRCLE
  5
36F
330
1F
100
AcDbEntity
  8
100
  6
Continuous
 62
     3
100
AcDbCircle
 10
362.709035061653
 20
28.7012574273817
 30
0.0
 40
9.5
  0
CIRCLE
  5
370
330
1F
100
AcDbEntity
  8
100
  6
Continuous
 62
     3
100
AcDbCircle
 10
362.709035061653
 20
-28.7012574273817
 30
0.0
 40
9.5
  0
CIRCLE
  5
371
330
1F
100
AcDbEntity
  8
100
  6
Continuous
 62
     3
100
AcDbCircle
 10
403.298742572618
 20
-69.2909649383465
 30
0.0
 40
9.5
  0
CIRCLE
  5
372
330
1F
100
AcDbEntity
  8
100
  6
Continuous
 62
     3
100
AcDbCircle
 10
432.0
 20
0.0
 30
0.0
 40
92.0
  0
CIRCLE
  5
373
330
1F
100
AcDbEntity
  8
100
  6
Continuous
 62
     3
100
AcDbCircle
 10
432.0
 20
0.0
 30
0.0
 40
54.00001676423699
  0
CIRCLE
  5
374
330
1F
100
AcDbEntity
  8
100
  6
Continuous
 62
     3
100
AcDbCircle
 10
432.0
 20
0.0
 30
0.0
 40
32.5
  0
CIRCLE
  5
375
330
1F
100
AcDbEntity
  8
2
  6
DOT_CENTER
 62
     1
100
AcDbCircle
 10
432.0
 20
0.0
 30
0.0
 40
75.0
  0
CIRCLE
  5
376
330
1F
100
AcDbEntity
  8
100
  6
Continuous
 62
     3
100
AcDbCircle
 10
460.701257427382
 20
69.2909649383465
 30
0.0
 40
9.5
  0
CIRCLE
  5
377
330
1F
100
AcDbEntity
  8
100
  6
Continuous
 62
     3
100
AcDbCircle
 10
501.290964938347
 20
28.7012574273817
 30
0.0
 40
9.5
  0
CIRCLE
  5
378
330
1F
100
AcDbEntity
  8
100
  6
Continuous
 62
     3
100
AcDbCircle
 10
501.290964938347
 20
-28.7012574273817
 30
0.0
 40
9.5
  0
CIRCLE
  5
379
330
1F
100
AcDbEntity
  8
100
  6
Continuous
 62
     3
100
AcDbCircle
 10
460.701257427382
 20
-69.2909649383465
 30
0.0
 40
9.5
  0
CIRCLE
  5
37A
330
1F
100
AcDbEntity
  8
100
  6
Continuous
 62
     3
100
AcDbCircle
 10
0.0
 20
480.0
 30
0.0
 40
80.0
  0
CIRCLE
  5
37B
330
1F
100
AcDbEntity
  8
100
  6
Continuous
 62
     3
100
AcDbCircle
 10
0.0
 20
480.0
 30
0.0
 40
18.5
  0
CIRCLE
  5
37C
330
1F
100
AcDbEntity
  8
100
  6
Continuous
 62
     3
100
AcDbCircle
 10
0.0
 20
480.0
 30
0.0
 40
70.0
  0
CIRCLE
  5
37D
330
1F
100
AcDbEntity
  8
100
  6
Continuous
 62
     3
100
AcDbCircle
 10
60.0000000000001
 20
480.0
 30
0.0
 40
9.9999999999999
  0
CIRCLE
  5
37E
330
1F
100
AcDbEntity
  8
100
  6
Continuous
 62
     3
100
AcDbCircle
 10
0.0
 20
480.0
 30
0.0
 40
7.5
  0
CIRCLE
  5
37F
330
1F
100
AcDbEntity
  8
100
  6
Continuous
 62
     3
100
AcDbCircle
 10
0.0
 20
480.0
 30
0.0
 40
13.5
  0
LWPOLYLINE
  5
380
330
1F
100
AcDbEntity
  8
100
  6
Continuous
 62
     3
100
AcDbPolyline
 90
       17
 70
     1
 43
0.0
 10
-26.1884413665168
 20
0.0
 10
-26.1884413665168
 20
0.0
 10
26.1884413665164
 20
0.0
 42
-0.74205596918086
 10
26.5212614842517
 20
-1.09923017660276
 10
14.4161237256096
 20
-9.16932201569746
 42
-0.79323030492311
 10
13.9188697656061
 20
-8.70310441267918
 10
16.6919433912124
 20
-3.89999999999998
 42
0.57735026918949
 10
16.1723281489419
 20
-2.99999999999998
 10
-7.4420312050031
 20
-3.0
 42
0.26794919243132
 10
-7.96164644727378
 20
-3.29999999999995
 10
-11.6566881700876
 20
-9.70000000000005
 42
-0.2679491924312
 10
-12.176303412358
 20
-10.0
 10
-29.7906627663031
 20
-9.99999999999998
 42
-0.57735026918954
 10
-30.3102780085735
 20
-9.10000000000002
 10
-26.7884413665167
 20
-3.0
 10
-26.7884413665167
 20
-0.60000000000002
 42
-0.41421356237354
 10
-26.1884413665168
 20
0.0
  0
LWPOLYLINE
  5
381
330
1F
100
AcDbEntity
  8
100
  6
Continuous
 62
     3
100
AcDbPolyline
 90
        8
 70
     1
 43
0.0
 10
4.90747728811182
 20
488.5
 10
4.90747728811182
 20
488.5
 10
9.81495457622364
 20
480.0
 10
4.90747728811182
 20
471.5
 10
-4.90747728811182
 20
471.5
 10
-9.81495457622364
 20
480.0
 10
-4.90747728811182
 20
488.5
 10
4.90747728811182
 20
488.5
  0
LWPOLYLINE
  5
382
330
1F
100
AcDbEntity
  8
100
  6
Continuous
 62
     3
100
AcDbPolyline
 90
       10
 70
     1
 43
0.0
 10
-2.49995040893555
 20
19.7225551605225
 10
-2.49995040893555
 20
19.7225551605225
 10
-4.99995040893555
 20
22.2225551605225
 10
-8.74995040893555
 20
22.2225551605225
 10
-11.2499504089355
 20
19.7225551605225
 10
-11.2499504089355
 20
14.7225551605225
 10
-8.74995040893555
 20
12.8475551605225
 10
-4.99995040893555
 20
12.8475551605225
 10
-2.49995040893555
 20
14.7225551605225
 10
-2.49995040893555
 20
19.7225551605225
  0
LWPOLYLINE
  5
383
330
1F
100
AcDbEntity
  8
100
  6
Continuous
 62
     3
100
AcDbPolyline
 90
        8
 70
     0
 43
0.0
 10
-8.74995040893555
 20
12.8475551605225
 10
-11.8749504089355
 20
10.3475551605225
 10
-11.8749504089355
 20
5.3475546836853
 10
-8.74995040893555
 20
2.2225546836853
 10
-4.99995040893555
 20
2.2225546836853
 10
-1.87495040893555
 20
5.3475546836853
 10
-1.87495040893555
 20
10.3475551605225
 10
-4.99995040893555
 20
12.8475551605225
  0
LWPOLYLINE
  5
384
330
1F
100
AcDbEntity
  8
100
  6
Continuous
 62
     3
100
AcDbPolyline
 90
       20
 70
     1
 43
0.0
 10
2.50004959106445
 20
5.9725546836853
 10
2.50004959106445
 20
5.9725546836853
 10
2.50004959106445
 20
18.4725551605225
 10
2.8970291180004
 20
19.9286625099787
 10
3.79934913411153
 20
21.1417525910038
 10
5.08021158512863
 20
21.9439403817023
 10
6.56254959106445
 20
22.2225551605225
 10
8.04488759700028
 20
21.9439403817023
 10
9.32575004801738
 20
21.1417525910038
 10
10.2280700641285
 20
19.9286625099787
 10
10.6250495910645
 20
18.4725551605225
 10
10.6250495910645
 20
5.9725546836853
 10
10.2280700641285
 20
4.51644733422907
 10
9.32575004801738
 20
3.30335725320395
 10
8.04488759700028
 20
2.5011694625055
 10
6.56254959106445
 20
2.2225546836853
 10
5.08021158512863
 20
2.5011694625055
 10
3.79934913411153
 20
3.30335725320395
 10
2.8970291180004
 20
4.51644733422907
 10
2.50004959106445
 20
5.9725546836853
  0
LEADER
  5
385
330
1F
100
AcDbEntity
  8
1
  6
Continuous
 62
     4
100
AcDbLeader
  3
Standard
 71
     0
 76
     3
 10
115.0
 20
0.0
 30
0.0
 10
158.766921219307
 20
-50.399201777117
 30
0.0
 10
230.585002847194
 20
-50.399201777117
 30
0.0
  0
LEADER
  5
386
330
1F
100
AcDbEntity
  8
1
  6
Continuous
 62
     4
100
AcDbLeader
  3
Standard
 71
     0
 76
     3
 10
24.0
 20
-204.148
 30
0.0
 10
40.1559604496857
 20
-226.721018015662
 30
0.0
 10
76.55980036104
 20
-226.721018015662
 30
0.0
  0
ENDSEC
  0
SECTION
  2
OBJECTS
  0
DICTIONARY
  5
C
330
0
100
AcDbDictionary
281
     1
  3
ACAD_GROUP
350
D
  3
ACAD_LAYOUT
350
1A
  3
ACAD_MATERIAL
350
3B
  3
ACAD_MLEADERSTYLE
350
389
  3
ACAD_MLINESTYLE
350
17
  3
ACAD_PLOTSETTINGS
350
19
  3
ACAD_PLOTSTYLENAME
350
E
  3
ACAD_VISUALSTYLE
350
2A
  3
AcDbVariableDictionary
350
387
  0
DICTIONARY
  5
D
102
{ACAD_REACTORS
330
C
102
}
330
C
100
AcDbDictionary
281
     1
  0
DICTIONARY
  5
1A
102
{ACAD_REACTORS
330
C
102
}
330
C
100
AcDbDictionary
281
     1
  3
Layout1
350
1E
  3
Layout2
350
26
  3
Model
350
22
  0
DICTIONARY
  5
3B
102
{ACAD_REACTORS
330
C
102
}
330
C
100
AcDbDictionary
281
     1
  3
ByBlock
350
3D
  3
ByLayer
350
3C
  3
Global
350
3E
  0
DICTIONARY
  5
389
102
{ACAD_REACTORS
330
C
102
}
330
C
100
AcDbDictionary
281
     1
  0
DICTIONARY
  5
17
102
{ACAD_REACTORS
330
C
102
}
330
C
100
AcDbDictionary
281
     1
  3
Standard
350
18
  0
DICTIONARY
  5
19
102
{ACAD_REACTORS
330
C
102
}
330
C
100
AcDbDictionary
281
     1
  0
ACDBDICTIONARYWDFLT
  5
E
102
{ACAD_REACTORS
330
C
102
}
330
C
100
AcDbDictionary
281
     1
  3
Normal
350
F
100
AcDbDictionaryWithDefault
340
F
  0
DICTIONARY
  5
2A
102
{ACAD_REACTORS
330
C
102
}
330
C
100
AcDbDictionary
281
     1
  3
2dWireframe
350
2F
  3
3D Hidden
350
31
  3
3dWireframe
350
30
  3
Basic
350
32
  3
Brighten
350
36
  3
ColorChange
350
3A
  3
Conceptual
350
34
  3
Dim
350
35
  3
Facepattern
350
39
  3
Flat
350
2B
  3
FlatWithEdges
350
2C
  3
Gouraud
350
2D
  3
GouraudWithEdges
350
2E
  3
Linepattern
350
38
  3
Realistic
350
33
  3
Thicken
350
37
  0
DICTIONARY
  5
387
102
{ACAD_REACTORS
330
C
102
}
330
C
100
AcDbDictionary
281
     1
  3
DIMASSOC
350
38A
  3
HIDETEXT
350
38B
  0
LAYOUT
  5
1E
102
{ACAD_REACTORS
330
1A
102
}
330
1A
100
AcDbPlotSettings
  1

  2
none_device
  4

  6

 40
0.0
 41
0.0
 42
0.0
 43
0.0
 44
0.0
 45
0.0
 46
0.0
 47
0.0
 48
0.0
 49
0.0
140
0.0
141
0.0
142
1.0
143
1.0
 70
   688
 72
     0
 73
     0
 74
     5
  7

 75
    16
147
1.0
148
0.0
149
0.0
100
AcDbLayout
  1
Layout1
 70
     1
 71
     1
 10
0.0
 20
0.0
 11
12.0
 21
9.0
 12
0.0
 22
0.0
 32
0.0
 14
1.00000000000000E+20
 24
1.00000000000000E+20
 34
1.00000000000000E+20
 15
-1.00000000000000E+20
 25
-1.00000000000000E+20
 35
-1.00000000000000E+20
146
0.0
 13
0.0
 23
0.0
 33
0.0
 16
1.0
 26
0.0
 36
0.0
 17
0.0
 27
1.0
 37
0.0
 76
     0
330
1B
  0
LAYOUT
  5
26
102
{ACAD_REACTORS
330
1A
102
}
330
1A
100
AcDbPlotSettings
  1

  2
none_device
  4

  6

 40
0.0
 41
0.0
 42
0.0
 43
0.0
 44
0.0
 45
0.0
 46
0.0
 47
0.0
 48
0.0
 49
0.0
140
0.0
141
0.0
142
1.0
143
1.0
 70
   688
 72
     0
 73
     0
 74
     5
  7

 75
    16
147
1.0
148
0.0
149
0.0
100
AcDbLayout
  1
Layout2
 70
     1
 71
     2
 10
0.0
 20
0.0
 11
0.0
 21
0.0
 12
0.0
 22
0.0
 32
0.0
 14
0.0
 24
0.0
 34
0.0
 15
0.0
 25
0.0
 35
0.0
146
0.0
 13
0.0
 23
0.0
 33
0.0
 16
1.0
 26
0.0
 36
0.0
 17
0.0
 27
1.0
 37
0.0
 76
     0
330
23
  0
LAYOUT
  5
22
102
{ACAD_REACTORS
330
1A
102
}
330
1A
100
AcDbPlotSettings
  1

  2
none_device
  4

  6

 40
0.0
 41
0.0
 42
0.0
 43
0.0
 44
0.0
 45
0.0
 46
0.0
 47
0.0
 48
0.0
 49
0.0
140
0.0
141
0.0
142
1.0
143
1.0
 70
  1712
 72
     0
 73
     0
 74
     0
  7

 75
     0
147
1.0
148
0.0
149
0.0
100
AcDbLayout
  1
Model
 70
     1
 71
     0
 10
0.0
 20
0.0
 11
12.0
 21
9.0
 12
0.0
 22
0.0
 32
0.0
 14
-127.0
 24
-241.266666666667
 34
0.0
 15
536.0
 25
572.0
 35
0.0
146
0.0
 13
0.0
 23
0.0
 33
0.0
 16
1.0
 26
0.0
 36
0.0
 17
0.0
 27
1.0
 37
0.0
 76
     0
330
1F
331
29
  0
MATERIAL
  5
3D
102
{ACAD_REACTORS
330
3B
102
}
102
{ACAD_XDICTIONARY
360
3AE
102
}
330
3B
100
AcDbMaterial
  1
ByBlock
  0
MATERIAL
  5
3C
102
{ACAD_REACTORS
330
3B
102
}
102
{ACAD_XDICTIONARY
360
3AC
102
}
330
3B
100
AcDbMaterial
  1
ByLayer
  0
MATERIAL
  5
3E
102
{ACAD_REACTORS
330
3B
102
}
102
{ACAD_XDICTIONARY
360
3B0
102
}
330
3B
100
AcDbMaterial
  1
Global
  0
MLINESTYLE
  5
18
102
{ACAD_REACTORS
330
17
102
}
330
17
100
AcDbMlineStyle
  2
Standard
 70
     0
  3

 62
   256
 51
90.0
 52
90.0
 71
     2
 49
0.5
 62
   256
  6
BYLAYER
 49
-0.5
 62
   256
  6
BYLAYER
  0
ACDBPLACEHOLDER
  5
F
102
{ACAD_REACTORS
330
E
102
}
330
E
  0
VISUALSTYLE
  5
2F
102
{ACAD_REACTORS
330
2A
102
}
102
{ACAD_XDICTIONARY
360
394
102
}
330
2A
100
AcDbVisualStyle
  2
2dWireframe
 70
     4
 71
     0
 72
     2
 73
     0
 90
        0
 40
-0.6
 41
-30.0
 62
     5
 63
     7
 74
     1
 91
        4
 64
     7
 65
   257
 75
     1
175
     1
 42
1.0
 92
        0
 66
   257
 43
1.0
 76
     1
 77
     6
 78
     2
 67
     7
 79
     5
170
     0
171
     0
290
     0
174
     0
 93
        1
 44
0.0
173
     0
291
     0
 45
0.0
1001
ACAD
1000
AcDbSavedByObjectVersion
1070
     0
  0
VISUALSTYLE
  5
31
102
{ACAD_REACTORS
330
2A
102
}
102
{ACAD_XDICTIONARY
360
398
102
}
330
2A
100
AcDbVisualStyle
  2
3D Hidden
 70
     6
 71
     1
 72
     2
 73
     2
 90
        0
 40
-0.6
 41
-30.0
 62
     5
 63
     7
 74
     2
 91
        2
 64
     7
 65
   257
 75
     2
175
     1
 42
40.0
 92
        0
 66
   257
 43
1.0
 76
     1
 77
     6
 78
     2
 67
     7
 79
     3
170
     0
171
     0
290
     0
174
     0
 93
        1
 44
0.0
173
     0
291
     0
 45
0.0
1001
ACAD
1000
AcDbSavedByObjectVersion
1070
     0
  0
VISUALSTYLE
  5
30
102
{ACAD_REACTORS
330
2A
102
}
102
{ACAD_XDICTIONARY
360
396
102
}
330
2A
100
AcDbVisualStyle
  2
3dWireframe
 70
     5
 71
     0
 72
     2
 73
     0
 90
        0
 40
-0.6
 41
-30.0
 62
     5
 63
     7
 74
     1
 91
        4
 64
     7
 65
   257
 75
     1
175
     1
 42
1.0
 92
        0
 66
   257
 43
1.0
 76
     1
 77
     6
 78
     2
 67
     7
 79
     5
170
     0
171
     0
290
     0
174
     0
 93
        1
 44
0.0
173
     0
291
     0
 45
0.0
1001
ACAD
1000
AcDbSavedByObjectVersion
1070
     0
  0
VISUALSTYLE
  5
32
102
{ACAD_REACTORS
330
2A
102
}
102
{ACAD_XDICTIONARY
360
39A
102
}
330
2A
100
AcDbVisualStyle
  2
Basic
 70
     7
 71
     1
 72
     0
 73
     1
 90
        0
 40
-0.6
 41
-30.0
 62
     5
 63
     7
 74
     0
 91
        4
 64
     7
 65
   257
 75
     1
175
     1
 42
1.0
 92
        8
 66
     7
 43
1.0
 76
     1
 77
     6
 78
     2
 67
     7
 79
     5
170
     0
171
     0
290
     0
174
     0
 93
        1
 44
0.0
173
     0
291
     1
 45
0.0
1001
ACAD
1000
AcDbSavedByObjectVersion
1070
     0
  0
VISUALSTYLE
  5
36
102
{ACAD_REACTORS
330
2A
102
}
102
{ACAD_XDICTIONARY
360
3A2
102
}
330
2A
100
AcDbVisualStyle
  2
Brighten
 70
    12
 71
     2
 72
     2
 73
     0
 90
        0
 40
-0.6
 41
-30.0
 62
     5
 63
     7
 74
     1
 91
        4
 64
     7
 65
   257
 75
     1
175
     1
 42
1.0
 92
        8
 66
     7
 43
1.0
 76
     1
 77
     6
 78
     2
 67
     7
 79
     5
170
     0
171
     0
290
     0
174
     0
 93
        1
 44
50.0
173
     0
291
     1
 45
0.0
1001
ACAD
1000
AcDbSavedByObjectVersion
1070
     0
  0
VISUALSTYLE
  5
3A
102
{ACAD_REACTORS
330
2A
102
}
102
{ACAD_XDICTIONARY
360
3AA
102
}
330
2A
100
AcDbVisualStyle
  2
ColorChange
 70
    16
 71
     2
 72
     2
 73
     3
 90
        0
 40
-0.6
 41
-30.0
 62
     5
 63
     8
 74
     1
 91
        4
 64
     7
 65
   257
 75
     1
175
     1
 42
1.0
 92
        8
 66
     8
 43
1.0
 76
     1
 77
     6
 78
     2
 67
     7
 79
     5
170
     0
171
     0
290
     0
174
     0
 93
        1
 44
0.0
173
     0
291
     1
 45
0.0
1001
ACAD
1000
AcDbSavedByObjectVersion
1070
     0
  0
VISUALSTYLE
  5
34
102
{ACAD_REACTORS
330
2A
102
}
102
{ACAD_XDICTIONARY
360
39E
102
}
330
2A
100
AcDbVisualStyle
  2
Conceptual
 70
     9
 71
     3
 72
     2
 73
     0
 90
        0
 40
-0.6
 41
-30.0
 62
     5
 63
     7
 74
     2
 91
        2
 64
     7
 65
   257
 75
     1
175
     1
 42
40.0
 92
        8
 66
     7
 43
1.0
 76
     1
 77
     6
 78
     2
 67
     7
 79
     3
170
     0
171
     0
290
     0
174
     0
 93
        1
 44
0.0
173
     0
291
     0
 45
0.0
1001
ACAD
1000
AcDbSavedByObjectVersion
1070
     0
  0
VISUALSTYLE
  5
35
102
{ACAD_REACTORS
330
2A
102
}
102
{ACAD_XDICTIONARY
360
3A0
102
}
330
2A
100
AcDbVisualStyle
  2
Dim
 70
    11
 71
     2
 72
     2
 73
     0
 90
        0
 40
-0.6
 41
-30.0
 62
     5
 63
     7
 74
     1
 91
        4
 64
     7
 65
   257
 75
     1
175
     1
 42
1.0
 92
        8
 66
     7
 43
1.0
 76
     1
 77
     6
 78
     2
 67
     7
 79
     5
170
     0
171
     0
290
     0
174
     0
 93
        1
 44
-50.0
173
     0
291
     1
 45
0.0
1001
ACAD
1000
AcDbSavedByObjectVersion
1070
     0
  0
VISUALSTYLE
  5
39
102
{ACAD_REACTORS
330
2A
102
}
102
{ACAD_XDICTIONARY
360
3A8
102
}
330
2A
100
AcDbVisualStyle
  2
Facepattern
 70
    15
 71
     2
 72
     2
 73
     0
 90
        0
 40
-0.6
 41
-30.0
 62
     5
 63
     7
 74
     1
 91
        4
 64
     7
 65
   257
 75
     1
175
     1
 42
1.0
 92
        8
 66
     7
 43
1.0
 76
     1
 77
     6
 78
     2
 67
     7
 79
     5
170
     0
171
     0
290
     0
174
     0
 93
        1
 44
0.0
173
     0
291
     1
 45
0.0
1001
ACAD
1000
AcDbSavedByObjectVersion
1070
     0
  0
VISUALSTYLE
  5
2B
102
{ACAD_REACTORS
330
2A
102
}
102
{ACAD_XDICTIONARY
360
38C
102
}
330
2A
100
AcDbVisualStyle
  2
Flat
 70
     0
 71
     2
 72
     1
 73
     1
 90
        2
 40
-0.6
 41
30.0
 62
     5
 63
     7
 74
     0
 91
        4
 64
     7
 65
   257
 75
     1
175
     1
 42
1.0
 92
        8
 66
     7
 43
1.0
 76
     1
 77
     6
 78
     2
 67
     7
 79
     5
170
     0
171
     0
290
     0
174
     0
 93
       13
 44
0.0
173
     0
291
     1
 45
0.0
1001
ACAD
1000
AcDbSavedByObjectVersion
1070
     0
  0
VISUALSTYLE
  5
2C
102
{ACAD_REACTORS
330
2A
102
}
102
{ACAD_XDICTIONARY
360
38E
102
}
330
2A
100
AcDbVisualStyle
  2
FlatWithEdges
 70
     1
 71
     2
 72
     1
 73
     1
 90
        2
 40
-0.6
 41
30.0
 62
     5
 63
     7
 74
     1
 91
        4
 64
     7
 65
   257
 75
     1
175
     1
 42
1.0
 92
        0
 66
   257
 43
1.0
 76
     1
 77
     6
 78
     2
 67
     7
 79
     5
170
     0
171
     0
290
     0
174
     0
 93
       13
 44
0.0
173
     0
291
     1
 45
0.0
1001
ACAD
1000
AcDbSavedByObjectVersion
1070
     0
  0
VISUALSTYLE
  5
2D
102
{ACAD_REACTORS
330
2A
102
}
102
{ACAD_XDICTIONARY
360
390
102
}
330
2A
100
AcDbVisualStyle
  2
Gouraud
 70
     2
 71
     2
 72
     2
 73
     1
 90
        2
 40
-0.6
 41
30.0
 62
     5
 63
     7
 74
     0
 91
        4
 64
     7
 65
   257
 75
     1
175
     1
 42
1.0
 92
        0
 66
     7
 43
1.0
 76
     1
 77
     6
 78
     2
 67
     7
 79
     5
170
     0
171
     0
290
     0
174
     0
 93
       13
 44
0.0
173
     0
291
     1
 45
0.0
1001
ACAD
1000
AcDbSavedByObjectVersion
1070
     0
  0
VISUALSTYLE
  5
2E
102
{ACAD_REACTORS
330
2A
102
}
102
{ACAD_XDICTIONARY
360
392
102
}
330
2A
100
AcDbVisualStyle
  2
GouraudWithEdges
 70
     3
 71
     2
 72
     2
 73
     1
 90
        2
 40
-0.6
 41
30.0
 62
     5
 63
     7
 74
     1
 91
        4
 64
     7
 65
   257
 75
     1
175
     1
 42
1.0
 92
        0
 66
   257
 43
1.0
 76
     1
 77
     6
 78
     2
 67
     7
 79
     5
170
     0
171
     0
290
     0
174
     0
 93
       13
 44
0.0
173
     0
291
     1
 45
0.0
1001
ACAD
1000
AcDbSavedByObjectVersion
1070
     0
  0
VISUALSTYLE
  5
38
102
{ACAD_REACTORS
330
2A
102
}
102
{ACAD_XDICTIONARY
360
3A6
102
}
330
2A
100
AcDbVisualStyle
  2
Linepattern
 70
    14
 71
     2
 72
     2
 73
     0
 90
        0
 40
-0.6
 41
-30.0
 62
     5
 63
     7
 74
     1
 91
        4
 64
     7
 65
   257
 75
     7
175
     7
 42
1.0
 92
        8
 66
     7
 43
1.0
 76
     1
 77
     6
 78
     2
 67
     7
 79
     5
170
     0
171
     0
290
     0
174
     0
 93
        1
 44
0.0
173
     0
291
     1
 45
0.0
1001
ACAD
1000
AcDbSavedByObjectVersion
1070
     0
  0
VISUALSTYLE
  5
33
102
{ACAD_REACTORS
330
2A
102
}
102
{ACAD_XDICTIONARY
360
39C
102
}
330
2A
100
AcDbVisualStyle
  2
Realistic
 70
     8
 71
     2
 72
     2
 73
     0
 90
        0
 40
-0.6
 41
-30.0
 62
     5
 63
     7
 74
     1
 91
        0
 64
     7
 65
   257
 75
     1
175
     1
 42
1.0
 92
        8
 66
     8
 43
1.0
 76
     1
 77
     6
 78
     2
 67
     7
 79
     5
170
     0
171
     0
290
     0
174
     0
 93
       13
 44
0.0
173
     0
291
     0
 45
0.0
1001
ACAD
1000
AcDbSavedByObjectVersion
1070
     0
  0
VISUALSTYLE
  5
37
102
{ACAD_REACTORS
330
2A
102
}
102
{ACAD_XDICTIONARY
360
3A4
102
}
330
2A
100
AcDbVisualStyle
  2
Thicken
 70
    13
 71
     2
 72
     2
 73
     0
 90
        0
 40
-0.6
 41
-30.0
 62
     5
 63
     7
 74
     1
 91
        4
 64
     7
 65
   257
 75
     1
175
     1
 42
1.0
 92
       12
 66
     7
 43
1.0
 76
     1
 77
     6
 78
     2
 67
     7
 79
     5
170
     0
171
     0
290
     0
174
     0
 93
        1
 44
0.0
173
     0
291
     1
 45
0.0
1001
ACAD
1000
AcDbSavedByObjectVersion
1070
     0
  0
DICTIONARYVAR
  5
38A
102
{ACAD_REACTORS
330
387
102
}
330
387
100
DictionaryVariables
280
     0
  1
2
  0
DICTIONARYVAR
  5
38B
102
{ACAD_REACTORS
330
387
102
}
330
387
100
DictionaryVariables
280
     0
  1
1
  0
DICTIONARY
  5
3AE
330
3D
100
AcDbDictionary
280
     1
281
     1
  3
ACAD_XREC_ROUNDTRIP
360
3AF
  0
DICTIONARY
  5
3AC
330
3C
100
AcDbDictionary
280
     1
281
     1
  3
ACAD_XREC_ROUNDTRIP
360
3AD
  0
DICTIONARY
  5
3B0
330
3E
100
AcDbDictionary
280
     1
281
     1
  3
ACAD_XREC_ROUNDTRIP
360
3B1
  0
DICTIONARY
  5
394
330
2F
100
AcDbDictionary
280
     1
281
     1
  3
ACAD_XREC_ROUNDTRIP
360
395
  0
DICTIONARY
  5
398
330
31
100
AcDbDictionary
280
     1
281
     1
  3
ACAD_XREC_ROUNDTRIP
360
399
  0
DICTIONARY
  5
396
330
30
100
AcDbDictionary
280
     1
281
     1
  3
ACAD_XREC_ROUNDTRIP
360
397
  0
DICTIONARY
  5
39A
330
32
100
AcDbDictionary
280
     1
281
     1
  3
ACAD_XREC_ROUNDTRIP
360
39B
  0
DICTIONARY
  5
3A2
330
36
100
AcDbDictionary
280
     1
281
     1
  3
ACAD_XREC_ROUNDTRIP
360
3A3
  0
DICTIONARY
  5
3AA
330
3A
100
AcDbDictionary
280
     1
281
     1
  3
ACAD_XREC_ROUNDTRIP
360
3AB
  0
DICTIONARY
  5
39E
330
34
100
AcDbDictionary
280
     1
281
     1
  3
ACAD_XREC_ROUNDTRIP
360
39F
  0
DICTIONARY
  5
3A0
330
35
100
AcDbDictionary
280
     1
281
     1
  3
ACAD_XREC_ROUNDTRIP
360
3A1
  0
DICTIONARY
  5
3A8
330
39
100
AcDbDictionary
280
     1
281
     1
  3
ACAD_XREC_ROUNDTRIP
360
3A9
  0
DICTIONARY
  5
38C
330
2B
100
AcDbDictionary
280
     1
281
     1
  3
ACAD_XREC_ROUNDTRIP
360
38D
  0
DICTIONARY
  5
38E
330
2C
100
AcDbDictionary
280
     1
281
     1
  3
ACAD_XREC_ROUNDTRIP
360
38F
  0
DICTIONARY
  5
390
330
2D
100
AcDbDictionary
280
     1
281
     1
  3
ACAD_XREC_ROUNDTRIP
360
391
  0
DICTIONARY
  5
392
330
2E
100
AcDbDictionary
280
     1
281
     1
  3
ACAD_XREC_ROUNDTRIP
360
393
  0
DICTIONARY
  5
3A6
330
38
100
AcDbDictionary
280
     1
281
     1
  3
ACAD_XREC_ROUNDTRIP
360
3A7
  0
DICTIONARY
  5
39C
330
33
100
AcDbDictionary
280
     1
281
     1
  3
ACAD_XREC_ROUNDTRIP
360
39D
  0
DICTIONARY
  5
3A4
330
37
100
AcDbDictionary
280
     1
281
     1
  3
ACAD_XREC_ROUNDTRIP
360
3A5
  0
XRECORD
  5
3AF
102
{ACAD_REACTORS
330
3AE
102
}
330
3AE
100
AcDbXrecord
280
     1
102
MATERIAL
148
0.0
149
0.0
149
0.0
 93
        0
 94
      127
282
     0
 72
     1
 77
     1
171
     1
175
     1
179
     1
273
     0
  0
XRECORD
  5
3AD
102
{ACAD_REACTORS
330
3AC
102
}
330
3AC
100
AcDbXrecord
280
     1
102
MATERIAL
148
0.0
149
0.0
149
0.0
 93
        0
 94
      127
282
     0
 72
     1
 77
     1
171
     1
175
     1
179
     1
273
     0
  0
XRECORD
  5
3B1
102
{ACAD_REACTORS
330
3B0
102
}
330
3B0
100
AcDbXrecord
280
     1
102
MATERIAL
148
0.0
149
0.0
149
0.0
 93
        0
 94
      127
282
     0
 72
     1
 77
     1
171
     1
175
     1
179
     1
273
     0
  0
XRECORD
  5
395
102
{ACAD_REACTORS
330
394
102
}
330
394
100
AcDbXrecord
280
     1
102
RTVSPropertyOp0
 70
     1
102
RTVSPropertyOp1
 70
     1
102
RTVSPropertyOp2
 70
     1
102
RTVSPropertyOp3
 70
     1
102
RTVSPropertyOp4
 70
     1
102
RTVSPropertyOp5
 70
     1
102
RTVSPropertyOp6
 70
     1
102
RTVSPropertyOp7
 70
     1
102
RTVSPropertyOp8
 70
     1
102
RTVSPropertyOp9
 70
     1
102
RTVSPropertyOp10
 70
     1
102
RTVSPropertyOp11
 70
     1
102
RTVSPropertyOp12
 70
     1
102
RTVSPropertyOp13
 70
     1
102
RTVSPropertyOp14
 70
     1
102
RTVSPropertyOp15
 70
     1
102
RTVSPropertyOp16
 70
     1
102
RTVSPropertyOp17
 70
     1
102
RTVSPropertyOp18
 70
     1
102
RTVSPropertyOp19
 70
     1
102
RTVSPropertyOp20
 70
     1
102
RTVSPropertyOp21
 70
     1
102
RTVSPropertyOp22
 70
     1
102
RTVSPropertyOp23
 70
     1
102
RTVSPropertyOp24
 70
     1
102
RTVSPropertyOp25
 70
     1
102
RTVSPropertyOp26
 70
     1
102
RTVSPropertyOp27
 70
     1
  0
XRECORD
  5
399
102
{ACAD_REACTORS
330
398
102
}
330
398
100
AcDbXrecord
280
     1
102
RTVSPropertyOp0
 70
     1
102
RTVSPropertyOp1
 70
     1
102
RTVSPropertyOp2
 70
     1
102
RTVSPropertyOp3
 70
     1
102
RTVSPropertyOp4
 70
     1
102
RTVSPropertyOp5
 70
     1
102
RTVSPropertyOp6
 70
     1
102
RTVSPropertyOp7
 70
     1
102
RTVSPropertyOp8
 70
     1
102
RTVSPropertyOp9
 70
     1
102
RTVSPropertyOp10
 70
     1
102
RTVSPropertyOp11
 70
     1
102
RTVSPropertyOp12
 70
     1
102
RTVSPropertyOp13
 70
     1
102
RTVSPropertyOp14
 70
     1
102
RTVSPropertyOp15
 70
     1
102
RTVSPropertyOp16
 70
     1
102
RTVSPropertyOp17
 70
     1
102
RTVSPropertyOp18
 70
     1
102
RTVSPropertyOp19
 70
     1
102
RTVSPropertyOp20
 70
     1
102
RTVSPropertyOp21
 70
     1
102
RTVSPropertyOp22
 70
     1
102
RTVSPropertyOp23
 70
     1
102
RTVSPropertyOp24
 70
     1
102
RTVSPropertyOp25
 70
     1
102
RTVSPropertyOp26
 70
     1
102
RTVSPropertyOp27
 70
     1
  0
XRECORD
  5
397
102
{ACAD_REACTORS
330
396
102
}
330
396
100
AcDbXrecord
280
     1
102
RTVSPropertyOp0
 70
     1
102
RTVSPropertyOp1
 70
     1
102
RTVSPropertyOp2
 70
     1
102
RTVSPropertyOp3
 70
     1
102
RTVSPropertyOp4
 70
     1
102
RTVSPropertyOp5
 70
     1
102
RTVSPropertyOp6
 70
     1
102
RTVSPropertyOp7
 70
     1
102
RTVSPropertyOp8
 70
     1
102
RTVSPropertyOp9
 70
     1
102
RTVSPropertyOp10
 70
     1
102
RTVSPropertyOp11
 70
     1
102
RTVSPropertyOp12
 70
     1
102
RTVSPropertyOp13
 70
     1
102
RTVSPropertyOp14
 70
     1
102
RTVSPropertyOp15
 70
     1
102
RTVSPropertyOp16
 70
     1
102
RTVSPropertyOp17
 70
     1
102
RTVSPropertyOp18
 70
     1
102
RTVSPropertyOp19
 70
     1
102
RTVSPropertyOp20
 70
     1
102
RTVSPropertyOp21
 70
     1
102
RTVSPropertyOp22
 70
     1
102
RTVSPropertyOp23
 70
     1
102
RTVSPropertyOp24
 70
     1
102
RTVSPropertyOp25
 70
     1
102
RTVSPropertyOp26
 70
     1
102
RTVSPropertyOp27
 70
     1
  0
XRECORD
  5
39B
102
{ACAD_REACTORS
330
39A
102
}
330
39A
100
AcDbXrecord
280
     1
102
RTVSPropertyOp0
 70
     1
102
RTVSPropertyOp1
 70
     1
102
RTVSPropertyOp2
 70
     1
102
RTVSPropertyOp3
 70
     1
102
RTVSPropertyOp4
 70
     1
102
RTVSPropertyOp5
 70
     1
102
RTVSPropertyOp6
 70
     1
102
RTVSPropertyOp7
 70
     1
102
RTVSPropertyOp8
 70
     1
102
RTVSPropertyOp9
 70
     1
102
RTVSPropertyOp10
 70
     1
102
RTVSPropertyOp11
 70
     1
102
RTVSPropertyOp12
 70
     1
102
RTVSPropertyOp13
 70
     1
102
RTVSPropertyOp14
 70
     1
102
RTVSPropertyOp15
 70
     1
102
RTVSPropertyOp16
 70
     1
102
RTVSPropertyOp17
 70
     1
102
RTVSPropertyOp18
 70
     1
102
RTVSPropertyOp19
 70
     1
102
RTVSPropertyOp20
 70
     1
102
RTVSPropertyOp21
 70
     1
102
RTVSPropertyOp22
 70
     1
102
RTVSPropertyOp23
 70
     1
102
RTVSPropertyOp24
 70
     1
102
RTVSPropertyOp25
 70
     1
102
RTVSPropertyOp26
 70
     1
102
RTVSPropertyOp27
 70
     1
  0
XRECORD
  5
3A3
102
{ACAD_REACTORS
330
3A2
102
}
330
3A2
100
AcDbXrecord
280
     1
102
RTVSPropertyOp0
 70
     1
102
RTVSPropertyOp1
 70
     1
102
RTVSPropertyOp2
 70
     1
102
RTVSPropertyOp3
 70
     1
102
RTVSPropertyOp4
 70
     1
102
RTVSPropertyOp5
 70
     1
102
RTVSPropertyOp6
 70
     1
102
RTVSPropertyOp7
 70
     1
102
RTVSPropertyOp8
 70
     1
102
RTVSPropertyOp9
 70
     1
102
RTVSPropertyOp10
 70
     1
102
RTVSPropertyOp11
 70
     1
102
RTVSPropertyOp12
 70
     1
102
RTVSPropertyOp13
 70
     1
102
RTVSPropertyOp14
 70
     1
102
RTVSPropertyOp15
 70
     1
102
RTVSPropertyOp16
 70
     1
102
RTVSPropertyOp17
 70
     1
102
RTVSPropertyOp18
 70
     1
102
RTVSPropertyOp19
 70
     1
102
RTVSPropertyOp20
 70
     1
102
RTVSPropertyOp21
 70
     1
102
RTVSPropertyOp22
 70
     1
102
RTVSPropertyOp23
 70
     1
102
RTVSPropertyOp24
 70
     1
102
RTVSPropertyOp25
 70
     1
102
RTVSPropertyOp26
 70
     1
102
RTVSPropertyOp27
 70
     1
  0
XRECORD
  5
3AB
102
{ACAD_REACTORS
330
3AA
102
}
330
3AA
100
AcDbXrecord
280
     1
102
RTVSPropertyOp0
 70
     1
102
RTVSPropertyOp1
 70
     1
102
RTVSPropertyOp2
 70
     1
102
RTVSPropertyOp3
 70
     1
102
RTVSPropertyOp4
 70
     1
102
RTVSPropertyOp5
 70
     1
102
RTVSPropertyOp6
 70
     1
102
RTVSPropertyOp7
 70
     1
102
RTVSPropertyOp8
 70
     1
102
RTVSPropertyOp9
 70
     1
102
RTVSPropertyOp10
 70
     1
102
RTVSPropertyOp11
 70
     1
102
RTVSPropertyOp12
 70
     1
102
RTVSPropertyOp13
 70
     1
102
RTVSPropertyOp14
 70
     1
102
RTVSPropertyOp15
 70
     1
102
RTVSPropertyOp16
 70
     1
102
RTVSPropertyOp17
 70
     1
102
RTVSPropertyOp18
 70
     1
102
RTVSPropertyOp19
 70
     1
102
RTVSPropertyOp20
 70
     1
102
RTVSPropertyOp21
 70
     1
102
RTVSPropertyOp22
 70
     1
102
RTVSPropertyOp23
 70
     1
102
RTVSPropertyOp24
 70
     1
102
RTVSPropertyOp25
 70
     1
102
RTVSPropertyOp26
 70
     1
102
RTVSPropertyOp27
 70
     1
  0
XRECORD
  5
39F
102
{ACAD_REACTORS
330
39E
102
}
330
39E
100
AcDbXrecord
280
     1
102
RTVSPropertyOp0
 70
     1
102
RTVSPropertyOp1
 70
     1
102
RTVSPropertyOp2
 70
     1
102
RTVSPropertyOp3
 70
     1
102
RTVSPropertyOp4
 70
     1
102
RTVSPropertyOp5
 70
     1
102
RTVSPropertyOp6
 70
     1
102
RTVSPropertyOp7
 70
     1
102
RTVSPropertyOp8
 70
     1
102
RTVSPropertyOp9
 70
     1
102
RTVSPropertyOp10
 70
     1
102
RTVSPropertyOp11
 70
     1
102
RTVSPropertyOp12
 70
     1
102
RTVSPropertyOp13
 70
     1
102
RTVSPropertyOp14
 70
     1
102
RTVSPropertyOp15
 70
     1
102
RTVSPropertyOp16
 70
     1
102
RTVSPropertyOp17
 70
     1
102
RTVSPropertyOp18
 70
     1
102
RTVSPropertyOp19
 70
     1
102
RTVSPropertyOp20
 70
     1
102
RTVSPropertyOp21
 70
     1
102
RTVSPropertyOp22
 70
     1
102
RTVSPropertyOp23
 70
     1
102
RTVSPropertyOp24
 70
     1
102
RTVSPropertyOp25
 70
     1
102
RTVSPropertyOp26
 70
     1
102
RTVSPropertyOp27
 70
     1
  0
XRECORD
  5
3A1
102
{ACAD_REACTORS
330
3A0
102
}
330
3A0
100
AcDbXrecord
280
     1
102
RTVSPropertyOp0
 70
     1
102
RTVSPropertyOp1
 70
     1
102
RTVSPropertyOp2
 70
     1
102
RTVSPropertyOp3
 70
     1
102
RTVSPropertyOp4
 70
     1
102
RTVSPropertyOp5
 70
     1
102
RTVSPropertyOp6
 70
     1
102
RTVSPropertyOp7
 70
     1
102
RTVSPropertyOp8
 70
     1
102
RTVSPropertyOp9
 70
     1
102
RTVSPropertyOp10
 70
     1
102
RTVSPropertyOp11
 70
     1
102
RTVSPropertyOp12
 70
     1
102
RTVSPropertyOp13
 70
     1
102
RTVSPropertyOp14
 70
     1
102
RTVSPropertyOp15
 70
     1
102
RTVSPropertyOp16
 70
     1
102
RTVSPropertyOp17
 70
     1
102
RTVSPropertyOp18
 70
     1
102
RTVSPropertyOp19
 70
     1
102
RTVSPropertyOp20
 70
     1
102
RTVSPropertyOp21
 70
     1
102
RTVSPropertyOp22
 70
     1
102
RTVSPropertyOp23
 70
     1
102
RTVSPropertyOp24
 70
     1
102
RTVSPropertyOp25
 70
     1
102
RTVSPropertyOp26
 70
     1
102
RTVSPropertyOp27
 70
     1
  0
XRECORD
  5
3A9
102
{ACAD_REACTORS
330
3A8
102
}
330
3A8
100
AcDbXrecord
280
     1
102
RTVSPropertyOp0
 70
     1
102
RTVSPropertyOp1
 70
     1
102
RTVSPropertyOp2
 70
     1
102
RTVSPropertyOp3
 70
     1
102
RTVSPropertyOp4
 70
     1
102
RTVSPropertyOp5
 70
     1
102
RTVSPropertyOp6
 70
     1
102
RTVSPropertyOp7
 70
     1
102
RTVSPropertyOp8
 70
     1
102
RTVSPropertyOp9
 70
     1
102
RTVSPropertyOp10
 70
     1
102
RTVSPropertyOp11
 70
     1
102
RTVSPropertyOp12
 70
     1
102
RTVSPropertyOp13
 70
     1
102
RTVSPropertyOp14
 70
     1
102
RTVSPropertyOp15
 70
     1
102
RTVSPropertyOp16
 70
     1
102
RTVSPropertyOp17
 70
     1
102
RTVSPropertyOp18
 70
     1
102
RTVSPropertyOp19
 70
     1
102
RTVSPropertyOp20
 70
     1
102
RTVSPropertyOp21
 70
     1
102
RTVSPropertyOp22
 70
     1
102
RTVSPropertyOp23
 70
     1
102
RTVSPropertyOp24
 70
     1
102
RTVSPropertyOp25
 70
     1
102
RTVSPropertyOp26
 70
     1
102
RTVSPropertyOp27
 70
     1
  0
XRECORD
  5
38D
102
{ACAD_REACTORS
330
38C
102
}
330
38C
100
AcDbXrecord
280
     1
102
RTVSPropertyOp0
 70
     1
102
RTVSPropertyOp1
 70
     1
102
RTVSPropertyOp2
 70
     1
102
RTVSPropertyOp3
 70
     1
102
RTVSPropertyOp4
 70
     1
102
RTVSPropertyOp5
 70
     1
102
RTVSPropertyOp6
 70
     1
102
RTVSPropertyOp7
 70
     1
102
RTVSPropertyOp8
 70
     1
102
RTVSPropertyOp9
 70
     1
102
RTVSPropertyOp10
 70
     1
102
RTVSPropertyOp11
 70
     1
102
RTVSPropertyOp12
 70
     1
102
RTVSPropertyOp13
 70
     1
102
RTVSPropertyOp14
 70
     1
102
RTVSPropertyOp15
 70
     1
102
RTVSPropertyOp16
 70
     1
102
RTVSPropertyOp17
 70
     1
102
RTVSPropertyOp18
 70
     1
102
RTVSPropertyOp19
 70
     1
102
RTVSPropertyOp20
 70
     1
102
RTVSPropertyOp21
 70
     1
102
RTVSPropertyOp22
 70
     1
102
RTVSPropertyOp23
 70
     1
102
RTVSPropertyOp24
 70
     1
102
RTVSPropertyOp25
 70
     1
102
RTVSPropertyOp26
 70
     1
102
RTVSPropertyOp27
 70
     1
  0
XRECORD
  5
38F
102
{ACAD_REACTORS
330
38E
102
}
330
38E
100
AcDbXrecord
280
     1
102
RTVSPropertyOp0
 70
     1
102
RTVSPropertyOp1
 70
     1
102
RTVSPropertyOp2
 70
     1
102
RTVSPropertyOp3
 70
     1
102
RTVSPropertyOp4
 70
     1
102
RTVSPropertyOp5
 70
     1
102
RTVSPropertyOp6
 70
     1
102
RTVSPropertyOp7
 70
     1
102
RTVSPropertyOp8
 70
     1
102
RTVSPropertyOp9
 70
     1
102
RTVSPropertyOp10
 70
     1
102
RTVSPropertyOp11
 70
     1
102
RTVSPropertyOp12
 70
     1
102
RTVSPropertyOp13
 70
     1
102
RTVSPropertyOp14
 70
     1
102
RTVSPropertyOp15
 70
     1
102
RTVSPropertyOp16
 70
     1
102
RTVSPropertyOp17
 70
     1
102
RTVSPropertyOp18
 70
     1
102
RTVSPropertyOp19
 70
     1
102
RTVSPropertyOp20
 70
     1
102
RTVSPropertyOp21
 70
     1
102
RTVSPropertyOp22
 70
     1
102
RTVSPropertyOp23
 70
     1
102
RTVSPropertyOp24
 70
     1
102
RTVSPropertyOp25
 70
     1
102
RTVSPropertyOp26
 70
     1
102
RTVSPropertyOp27
 70
     1
  0
XRECORD
  5
391
102
{ACAD_REACTORS
330
390
102
}
330
390
100
AcDbXrecord
280
     1
102
RTVSPropertyOp0
 70
     1
102
RTVSPropertyOp1
 70
     1
102
RTVSPropertyOp2
 70
     1
102
RTVSPropertyOp3
 70
     1
102
RTVSPropertyOp4
 70
     1
102
RTVSPropertyOp5
 70
     1
102
RTVSPropertyOp6
 70
     1
102
RTVSPropertyOp7
 70
     1
102
RTVSPropertyOp8
 70
     1
102
RTVSPropertyOp9
 70
     1
102
RTVSPropertyOp10
 70
     1
102
RTVSPropertyOp11
 70
     1
102
RTVSPropertyOp12
 70
     1
102
RTVSPropertyOp13
 70
     1
102
RTVSPropertyOp14
 70
     1
102
RTVSPropertyOp15
 70
     1
102
RTVSPropertyOp16
 70
     1
102
RTVSPropertyOp17
 70
     1
102
RTVSPropertyOp18
 70
     1
102
RTVSPropertyOp19
 70
     1
102
RTVSPropertyOp20
 70
     1
102
RTVSPropertyOp21
 70
     1
102
RTVSPropertyOp22
 70
     1
102
RTVSPropertyOp23
 70
     1
102
RTVSPropertyOp24
 70
     1
102
RTVSPropertyOp25
 70
     1
102
RTVSPropertyOp26
 70
     1
102
RTVSPropertyOp27
 70
     1
  0
XRECORD
  5
393
102
{ACAD_REACTORS
330
392
102
}
330
392
100
AcDbXrecord
280
     1
102
RTVSPropertyOp0
 70
     1
102
RTVSPropertyOp1
 70
     1
102
RTVSPropertyOp2
 70
     1
102
RTVSPropertyOp3
 70
     1
102
RTVSPropertyOp4
 70
     1
102
RTVSPropertyOp5
 70
     1
102
RTVSPropertyOp6
 70
     1
102
RTVSPropertyOp7
 70
     1
102
RTVSPropertyOp8
 70
     1
102
RTVSPropertyOp9
 70
     1
102
RTVSPropertyOp10
 70
     1
102
RTVSPropertyOp11
 70
     1
102
RTVSPropertyOp12
 70
     1
102
RTVSPropertyOp13
 70
     1
102
RTVSPropertyOp14
 70
     1
102
RTVSPropertyOp15
 70
     1
102
RTVSPropertyOp16
 70
     1
102
RTVSPropertyOp17
 70
     1
102
RTVSPropertyOp18
 70
     1
102
RTVSPropertyOp19
 70
     1
102
RTVSPropertyOp20
 70
     1
102
RTVSPropertyOp21
 70
     1
102
RTVSPropertyOp22
 70
     1
102
RTVSPropertyOp23
 70
     1
102
RTVSPropertyOp24
 70
     1
102
RTVSPropertyOp25
 70
     1
102
RTVSPropertyOp26
 70
     1
102
RTVSPropertyOp27
 70
     1
  0
XRECORD
  5
3A7
102
{ACAD_REACTORS
330
3A6
102
}
330
3A6
100
AcDbXrecord
280
     1
102
RTVSPropertyOp0
 70
     1
102
RTVSPropertyOp1
 70
     1
102
RTVSPropertyOp2
 70
     1
102
RTVSPropertyOp3
 70
     1
102
RTVSPropertyOp4
 70
     1
102
RTVSPropertyOp5
 70
     1
102
RTVSPropertyOp6
 70
     1
102
RTVSPropertyOp7
 70
     1
102
RTVSPropertyOp8
 70
     1
102
RTVSPropertyOp9
 70
     1
102
RTVSPropertyOp10
 70
     1
102
RTVSPropertyOp11
 70
     1
102
RTVSPropertyOp12
 70
     1
102
RTVSPropertyOp13
 70
     1
102
RTVSPropertyOp14
 70
     1
102
RTVSPropertyOp15
 70
     1
102
RTVSPropertyOp16
 70
     1
102
RTVSPropertyOp17
 70
     1
102
RTVSPropertyOp18
 70
     1
102
RTVSPropertyOp19
 70
     1
102
RTVSPropertyOp20
 70
     1
102
RTVSPropertyOp21
 70
     1
102
RTVSPropertyOp22
 70
     1
102
RTVSPropertyOp23
 70
     1
102
RTVSPropertyOp24
 70
     1
102
RTVSPropertyOp25
 70
     1
102
RTVSPropertyOp26
 70
     1
102
RTVSPropertyOp27
 70
     1
  0
XRECORD
  5
39D
102
{ACAD_REACTORS
330
39C
102
}
330
39C
100
AcDbXrecord
280
     1
102
RTVSPropertyOp0
 70
     1
102
RTVSPropertyOp1
 70
     1
102
RTVSPropertyOp2
 70
     1
102
RTVSPropertyOp3
 70
     1
102
RTVSPropertyOp4
 70
     1
102
RTVSPropertyOp5
 70
     1
102
RTVSPropertyOp6
 70
     1
102
RTVSPropertyOp7
 70
     1
102
RTVSPropertyOp8
 70
     1
102
RTVSPropertyOp9
 70
     1
102
RTVSPropertyOp10
 70
     1
102
RTVSPropertyOp11
 70
     1
102
RTVSPropertyOp12
 70
     1
102
RTVSPropertyOp13
 70
     1
102
RTVSPropertyOp14
 70
     1
102
RTVSPropertyOp15
 70
     1
102
RTVSPropertyOp16
 70
     1
102
RTVSPropertyOp17
 70
     1
102
RTVSPropertyOp18
 70
     1
102
RTVSPropertyOp19
 70
     1
102
RTVSPropertyOp20
 70
     1
102
RTVSPropertyOp21
 70
     1
102
RTVSPropertyOp22
 70
     1
102
RTVSPropertyOp23
 70
     1
102
RTVSPropertyOp24
 70
     1
102
RTVSPropertyOp25
 70
     1
102
RTVSPropertyOp26
 70
     1
102
RTVSPropertyOp27
 70
     1
  0
XRECORD
  5
3A5
102
{ACAD_REACTORS
330
3A4
102
}
330
3A4
100
AcDbXrecord
280
     1
102
RTVSPropertyOp0
 70
     1
102
RTVSPropertyOp1
 70
     1
102
RTVSPropertyOp2
 70
     1
102
RTVSPropertyOp3
 70
     1
102
RTVSPropertyOp4
 70
     1
102
RTVSPropertyOp5
 70
     1
102
RTVSPropertyOp6
 70
     1
102
RTVSPropertyOp7
 70
     1
102
RTVSPropertyOp8
 70
     1
102
RTVSPropertyOp9
 70
     1
102
RTVSPropertyOp10
 70
     1
102
RTVSPropertyOp11
 70
     1
102
RTVSPropertyOp12
 70
     1
102
RTVSPropertyOp13
 70
     1
102
RTVSPropertyOp14
 70
     1
102
RTVSPropertyOp15
 70
     1
102
RTVSPropertyOp16
 70
     1
102
RTVSPropertyOp17
 70
     1
102
RTVSPropertyOp18
 70
     1
102
RTVSPropertyOp19
 70
     1
102
RTVSPropertyOp20
 70
     1
102
RTVSPropertyOp21
 70
     1
102
RTVSPropertyOp22
 70
     1
102
RTVSPropertyOp23
 70
     1
102
RTVSPropertyOp24
 70
     1
102
RTVSPropertyOp25
 70
     1
102
RTVSPropertyOp26
 70
     1
102
RTVSPropertyOp27
 70
     1
  0
ENDSEC
  0
EOF
