  0
SECTION
  2
HEADER
  9
$ACADVER
  1
AC1015
  9
$ACADMAINTVER
 70
     6
  9
$DWGCODEPAGE
  3
ANSI_932
  9
$INSBASE
 10
0.0
 20
0.0
 30
0.0
  9
$EXTMIN
 10
-117.0
 20
-237.312883564523
 30
0.0
  9
$EXTMAX
 10
614.00583153782
 20
495.0
 30
0.0
  9
$LIMMIN
 10
0.0
 20
0.0
  9
$LIMMAX
 10
12.0
 20
9.0
  9
$ORTHOMODE
 70
     0
  9
$REGENMODE
 70
     1
  9
$FILLMODE
 70
     1
  9
$QTEXTMODE
 70
     0
  9
$MIRRTEXT
 70
     1
  9
$LTSCALE
 40
1.0
  9
$ATTMODE
 70
     1
  9
$TEXTSIZE
 40
0.2
  9
$TRACEWID
 40
0.05
  9
$TEXTSTYLE
  7
Standard
  9
$CLAYER
  8
0
  9
$CELTYPE
  6
ByLayer
  9
$CECOLOR
 62
   256
  9
$CELTSCALE
 40
1.0
  9
$DISPSILH
 70
     0
  9
$DIMSCALE
 40
1.0
  9
$DIMASZ
 40
0.18
  9
$DIMEXO
 40
0.0625
  9
$DIMDLI
 40
0.38
  9
$DIMRND
 40
0.0
  9
$DIMDLE
 40
0.0
  9
$DIMEXE
 40
0.18
  9
$DIMTP
 40
0.0
  9
$DIMTM
 40
0.0
  9
$DIMTXT
 40
0.18
  9
$DIMCEN
 40
0.09
  9
$DIMTSZ
 40
0.0
  9
$DIMTOL
 70
     0
  9
$DIMLIM
 70
     0
  9
$DIMTIH
 70
     1
  9
$DIMTOH
 70
     1
  9
$DIMSE1
 70
     0
  9
$DIMSE2
 70
     0
  9
$DIMTAD
 70
     0
  9
$DIMZIN
 70
     0
  9
$DIMBLK
  1

  9
$DIMASO
 70
     1
  9
$DIMSHO
 70
     1
  9
$DIMPOST
  1

  9
$DIMAPOST
  1

  9
$DIMALT
 70
     0
  9
$DIMALTD
 70
     2
  9
$DIMALTF
 40
25.4
  9
$DIMLFAC
 40
1.0
  9
$DIMTOFL
 70
     0
  9
$DIMTVP
 40
0.0
  9
$DIMTIX
 70
     0
  9
$DIMSOXD
 70
     0
  9
$DIMSAH
 70
     0
  9
$DIMBLK1
  1

  9
$DIMBLK2
  1

  9
$DIMSTYLE
  2
Standard
  9
$DIMCLRD
 70
     0
  9
$DIMCLRE
 70
     0
  9
$DIMCLRT
 70
     0
  9
$DIMTFAC
 40
1.0
  9
$DIMGAP
 40
0.09
  9
$DIMJUST
 70
     0
  9
$DIMSD1
 70
     0
  9
$DIMSD2
 70
     0
  9
$DIMTOLJ
 70
     1
  9
$DIMTZIN
 70
     0
  9
$DIMALTZ
 70
     0
  9
$DIMALTTZ
 70
     0
  9
$DIMUPT
 70
     0
  9
$DIMDEC
 70
     4
  9
$DIMTDEC
 70
     4
  9
$DIMALTU
 70
     2
  9
$DIMALTTD
 70
     2
  9
$DIMTXSTY
  7
Standard
  9
$DIMAUNIT
 70
     0
  9
$DIMADEC
 70
     0
  9
$DIMALTRND
 40
0.0
  9
$DIMAZIN
 70
     0
  9
$DIMDSEP
 70
    46
  9
$DIMATFIT
 70
     3
  9
$DIMFRAC
 70
     0
  9
$DIMLDRBLK
  1

  9
$DIMLUNIT
 70
     2
  9
$DIMLWD
 70
    -2
  9
$DIMLWE
 70
    -2
  9
$DIMTMOVE
 70
     0
  9
$LUNITS
 70
     2
  9
$LUPREC
 70
     4
  9
$SKETCHINC
 40
0.1
  9
$FILLETRAD
 40
0.5
  9
$AUNITS
 70
     0
  9
$AUPREC
 70
     0
  9
$MENU
  1
.
  9
$ELEVATION
 40
0.0
  9
$PELEVATION
 40
0.0
  9
$THICKNESS
 40
0.0
  9
$LIMCHECK
 70
     0
  9
$CHAMFERA
 40
0.5
  9
$CHAMFERB
 40
0.5
  9
$CHAMFERC
 40
1.0
  9
$CHAMFERD
 40
0.0
  9
$SKPOLY
 70
     0
  9
$TDCREATE
 40
2457624.721094606
  9
$TDUCREATE
 40
2457624.346094606
  9
$TDUPDATE
 40
2457624.721094618
  9
$TDUUPDATE
 40
2457624.346094618
  9
$TDINDWG
 40
0.0000000116
  9
$TDUSRTIMER
 40
0.0000000116
  9
$USRTIMER
 70
     1
  9
$ANGBASE
 50
0.0
  9
$ANGDIR
 70
     0
  9
$PDMODE
 70
     0
  9
$PDSIZE
 40
0.0
  9
$PLINEWID
 40
0.0
  9
$SPLFRAME
 70
     0
  9
$SPLINETYPE
 70
     6
  9
$SPLINESEGS
 70
     8
  9
$HANDSEED
  5
3BE
  9
$SURFTAB1
 70
     6
  9
$SURFTAB2
 70
     6
  9
$SURFTYPE
 70
     6
  9
$SURFU
 70
     6
  9
$SURFV
 70
     6
  9
$UCSBASE
  2

  9
$UCSNAME
  2

  9
$UCSORG
 10
0.0
 20
0.0
 30
0.0
  9
$UCSXDIR
 10
1.0
 20
0.0
 30
0.0
  9
$UCSYDIR
 10
0.0
 20
1.0
 30
0.0
  9
$UCSORTHOREF
  2

  9
$UCSORTHOVIEW
 70
     0
  9
$UCSORGTOP
 10
0.0
 20
0.0
 30
0.0
  9
$UCSORGBOTTOM
 10
0.0
 20
0.0
 30
0.0
  9
$UCSORGLEFT
 10
0.0
 20
0.0
 30
0.0
  9
$UCSORGRIGHT
 10
0.0
 20
0.0
 30
0.0
  9
$UCSORGFRONT
 10
0.0
 20
0.0
 30
0.0
  9
$UCSORGBACK
 10
0.0
 20
0.0
 30
0.0
  9
$PUCSBASE
  2

  9
$PUCSNAME
  2

  9
$PUCSORG
 10
0.0
 20
0.0
 30
0.0
  9
$PUCSXDIR
 10
1.0
 20
0.0
 30
0.0
  9
$PUCSYDIR
 10
0.0
 20
1.0
 30
0.0
  9
$PUCSORTHOREF
  2

  9
$PUCSORTHOVIEW
 70
     0
  9
$PUCSORGTOP
 10
0.0
 20
0.0
 30
0.0
  9
$PUCSORGBOTTOM
 10
0.0
 20
0.0
 30
0.0
  9
$PUCSORGLEFT
 10
0.0
 20
0.0
 30
0.0
  9
$PUCSORGRIGHT
 10
0.0
 20
0.0
 30
0.0
  9
$PUCSORGFRONT
 10
0.0
 20
0.0
 30
0.0
  9
$PUCSORGBACK
 10
0.0
 20
0.0
 30
0.0
  9
$USERI1
 70
     0
  9
$USERI2
 70
     0
  9
$USERI3
 70
     0
  9
$USERI4
 70
     0
  9
$USERI5
 70
     0
  9
$USERR1
 40
18.0
  9
$USERR2
 40
0.0
  9
$USERR3
 40
0.0
  9
$USERR4
 40
0.0
  9
$USERR5
 40
0.0
  9
$WORLDVIEW
 70
     1
  9
$SHADEDGE
 70
     3
  9
$SHADEDIF
 70
    70
  9
$TILEMODE
 70
     1
  9
$MAXACTVP
 70
    64
  9
$PINSBASE
 10
0.0
 20
0.0
 30
0.0
  9
$PLIMCHECK
 70
     0
  9
$PEXTMIN
 10
1.00000000000000E+20
 20
1.00000000000000E+20
 30
1.00000000000000E+20
  9
$PEXTMAX
 10
-1.00000000000000E+20
 20
-1.00000000000000E+20
 30
-1.00000000000000E+20
  9
$PLIMMIN
 10
0.0
 20
0.0
  9
$PLIMMAX
 10
12.0
 20
9.0
  9
$UNITMODE
 70
     0
  9
$VISRETAIN
 70
     1
  9
$PLINEGEN
 70
     0
  9
$PSLTSCALE
 70
     1
  9
$TREEDEPTH
 70
  3020
  9
$CMLSTYLE
  2
Standard
  9
$CMLJUST
 70
     0
  9
$CMLSCALE
 40
1.0
  9
$PROXYGRAPHICS
 70
     1
  9
$MEASUREMENT
 70
     1
  9
$CELWEIGHT
370
    -1
  9
$ENDCAPS
280
     0
  9
$JOINSTYLE
280
     0
  9
$LWDISPLAY
290
     0
  9
$INSUNITS
 70
     1
  9
$HYPERLINKBASE
  1

  9
$STYLESHEET
  1

  9
$XEDIT
290
     1
  9
$CEPSNTYPE
380
     0
  9
$PSTYLEMODE
290
     1
  9
$FINGERPRINTGUID
  2
{51DFB15A-E669-4C31-8A8C-536753EF8590}
  9
$VERSIONGUID
  2
{FAEB1C32-E019-11D5-929B-00C0DF256EC4}
  9
$EXTNAMES
290
     1
  9
$PSVPSCALE
 40
0.0
  9
$OLESTARTUP
290
     0
  0
ENDSEC
  0
SECTION
  2
CLASSES
  0
CLASS
  1
ACDBDICTIONARYWDFLT
  2
AcDbDictionaryWithDefault
  3
ObjectDBX Classes
 90
        0
280
     0
281
     0
  0
CLASS
  1
VISUALSTYLE
  2
AcDbVisualStyle
  3
ObjectDBX Classes
 90
     4095
280
     0
281
     0
  0
CLASS
  1
MATERIAL
  2
AcDbMaterial
  3
ObjectDBX Classes
 90
     1153
280
     0
281
     0
  0
CLASS
  1

  2
exOdDbCircle
  3

 90
        0
280
     0
281
     1
  0
CLASS
  1

  2
exOdDbPolyline
  3

 90
        0
280
     0
281
     1
  0
CLASS
  1
DICTIONARYVAR
  2
AcDbDictionaryVar
  3
ObjectDBX Classes
 90
        0
280
     0
281
     0
  0
CLASS
  1
ACDBPLACEHOLDER
  2
AcDbPlaceHolder
  3
ObjectDBX Classes
 90
        0
280
     0
281
     0
  0
CLASS
  1
LAYOUT
  2
AcDbLayout
  3
ObjectDBX Classes
 90
        0
280
     0
281
     0
  0
ENDSEC
  0
SECTION
  2
TABLES
  0
TABLE
  2
VPORT
  5
8
330
0
100
AcDbSymbolTable
 70
     1
  0
VPORT
  5
29
330
8
100
AcDbSymbolTableRecord
100
AcDbViewportTableRecord
  2
*Active
 70
     0
 10
0.0
 20
0.0
 11
1.0
 21
1.0
 12
248.50291576891
 22
128.8435582177385
 13
0.0
 23
0.0
 14
0.5
 24
0.5
 15
0.5
 25
0.5
 16
0.0
 26
0.0
 36
1.0
 17
0.0
 27
0.0
 37
0.0
 40
805.5441719209754
 41
1.60267857142857
 42
50.0
 43
0.0
 44
0.0
 50
0.0
 51
0.0
 71
     0
 72
   100
 73
     1
 74
     3
 75
     0
 76
     0
 77
     0
 78
     0
281
     0
 65
     1
110
0.0
120
0.0
130
0.0
111
1.0
121
0.0
131
0.0
112
0.0
122
1.0
132
0.0
 79
     0
146
0.0
  0
ENDTAB
  0
TABLE
  2
LTYPE
  5
5
330
0
100
AcDbSymbolTable
 70
     9
  0
LTYPE
  5
14
330
5
100
AcDbSymbolTableRecord
100
AcDbLinetypeTableRecord
  2
ByBlock
 70
     0
  3

 72
    65
 73
     0
 40
0.0
  0
LTYPE
  5
15
330
5
100
AcDbSymbolTableRecord
100
AcDbLinetypeTableRecord
  2
ByLayer
 70
     0
  3

 72
    65
 73
     0
 40
0.0
  0
LTYPE
  5
16
330
5
100
AcDbSymbolTableRecord
100
AcDbLinetypeTableRecord
  2
Continuous
 70
     0
  3
Solid line
 72
    65
 73
     0
 40
0.0
  0
LTYPE
  5
3F
330
5
100
AcDbSymbolTableRecord
100
AcDbLinetypeTableRecord
  2
DASHED
 70
     0
  3
Dashed
 72
    65
 73
     2
 40
15.0
 49
7.0
 74
     0
 49
-8.0
 74
     0
  0
LTYPE
  5
40
330
5
100
AcDbSymbolTableRecord
100
AcDbLinetypeTableRecord
  2
DOTTED
 70
     0
  3
Dotted
 72
    65
 73
     2
 40
1.0
 49
0.0
 74
     0
 49
-1.0
 74
     0
  0
LTYPE
  5
41
330
5
100
AcDbSymbolTableRecord
100
AcDbLinetypeTableRecord
  2
DOT_CENTER
 70
     0
  3
Dot_Center
 72
    65
 73
     4
 40
14.0
 49
12.0
 74
     0
 49
-1.0
 74
     0
 49
0.0
 74
     0
 49
-1.0
 74
     0
  0
LTYPE
  5
42
330
5
100
AcDbSymbolTableRecord
100
AcDbLinetypeTableRecord
  2
LONG_DASHED
 70
     0
  3
Long_Dashed
 72
    65
 73
     2
 40
15.0
 49
10.0
 74
     0
 49
-5.0
 74
     0
  0
LTYPE
  5
43
330
5
100
AcDbSymbolTableRecord
100
AcDbLinetypeTableRecord
  2
DASH_CENTER
 70
     0
  3
Dash_Center
 72
    65
 73
     4
 40
14.0
 49
11.0
 74
     0
 49
-1.0
 74
     0
 49
1.0
 74
     0
 49
-1.0
 74
     0
  0
LTYPE
  5
44
330
5
100
AcDbSymbolTableRecord
100
AcDbLinetypeTableRecord
  2
PHANTOM
 70
     0
  3
Phantom
 72
    65
 73
     6
 40
13.0
 49
10.0
 74
     0
 49
-1.0
 74
     0
 49
0.0
 74
     0
 49
-1.0
 74
     0
 49
0.0
 74
     0
 49
-1.0
 74
     0
  0
LTYPE
  5
45
330
5
100
AcDbSymbolTableRecord
100
AcDbLinetypeTableRecord
  2
CENTER_DASH_DASH
 70
     0
  3
Center_Dash_Dash
 72
    65
 73
     6
 40
14.0
 49
9.0
 74
     0
 49
-1.0
 74
     0
 49
1.0
 74
     0
 49
-1.0
 74
     0
 49
1.0
 74
     0
 49
-1.0
 74
     0
  0
LTYPE
  5
46
330
5
100
AcDbSymbolTableRecord
100
AcDbLinetypeTableRecord
  2
CENTER
 70
     0
  3
CENTER
 72
    65
 73
     4
 40
6.0
 49
3.0
 74
     0
 49
-1.0
 74
     0
 49
1.0
 74
     0
 49
-1.0
 74
     0
  0
ENDTAB
  0
TABLE
  2
LAYER
  5
2
330
0
100
AcDbSymbolTable
 70
     4
  0
LAYER
  5
10
330
2
100
AcDbSymbolTableRecord
100
AcDbLayerTableRecord
  2
0
 70
     0
 62
     7
  6
Continuous
370
    -3
390
F
  0
LAYER
  5
47
330
2
100
AcDbSymbolTableRecord
100
AcDbLayerTableRecord
  2
1
 70
     0
 62
     7
  6
Continuous
370
    -3
390
F
  0
LAYER
  5
48
330
2
100
AcDbSymbolTableRecord
100
AcDbLayerTableRecord
  2
100
 70
     0
 62
     7
  6
Continuous
370
    -3
390
F
  0
LAYER
  5
49
330
2
100
AcDbSymbolTableRecord
100
AcDbLayerTableRecord
  2
2
 70
     0
 62
     7
  6
Continuous
370
    -3
390
F
  0
ENDTAB
  0
TABLE
  2
STYLE
  5
3
330
0
100
AcDbSymbolTable
 70
     1
  0
STYLE
  5
11
330
3
100
AcDbSymbolTableRecord
100
AcDbTextStyleTableRecord
  2
Standard
 70
     0
 40
0.0
 41
1.0
 50
0.0
 71
     0
 42
0.2
  3
txt
  4

  0
ENDTAB
  0
TABLE
  2
VIEW
  5
6
330
0
100
AcDbSymbolTable
 70
     0
  0
ENDTAB
  0
TABLE
  2
UCS
  5
7
330
0
100
AcDbSymbolTable
 70
     0
  0
ENDTAB
  0
TABLE
  2
APPID
  5
9
330
0
100
AcDbSymbolTable
 70
     1
  0
APPID
  5
12
330
9
100
AcDbSymbolTableRecord
100
AcDbRegAppTableRecord
  2
ACAD
 70
     0
  0
ENDTAB
  0
TABLE
  2
DIMSTYLE
  5
A
330
0
100
AcDbSymbolTable
 70
     1
100
AcDbDimStyleTable
  0
DIMSTYLE
105
27
330
A
100
AcDbSymbolTableRecord
100
AcDbDimStyleTableRecord
  2
Standard
 70
     0
340
11
  0
ENDTAB
  0
TABLE
  2
BLOCK_RECORD
  5
1
330
0
100
AcDbSymbolTable
 70
     1
  0
BLOCK_RECORD
  5
1F
330
1
100
AcDbSymbolTableRecord
100
AcDbBlockTableRecord
  2
*Model_Space
340
22
  0
BLOCK_RECORD
  5
1B
330
1
100
AcDbSymbolTableRecord
100
AcDbBlockTableRecord
  2
*Paper_Space
340
1E
  0
BLOCK_RECORD
  5
23
330
1
100
AcDbSymbolTableRecord
100
AcDbBlockTableRecord
  2
*Paper_Space0
340
26
  0
ENDTAB
  0
ENDSEC
  0
SECTION
  2
BLOCKS
  0
BLOCK
  5
20
330
1F
100
AcDbEntity
  8
0
100
AcDbBlockBegin
  2
*Model_Space
 70
     0
 10
0.0
 20
0.0
 30
0.0
  3
*Model_Space
  1

  0
ENDBLK
  5
21
330
1F
100
AcDbEntity
  8
0
100
AcDbBlockEnd
  0
BLOCK
  5
1C
330
1B
100
AcDbEntity
 67
     1
  8
0
100
AcDbBlockBegin
  2
*Paper_Space
 70
     0
 10
0.0
 20
0.0
 30
0.0
  3
*Paper_Space
  1

  0
ENDBLK
  5
1D
330
1B
100
AcDbEntity
 67
     1
  8
0
100
AcDbBlockEnd
  0
BLOCK
  5
24
330
23
100
AcDbEntity
  8
0
100
AcDbBlockBegin
  2
*Paper_Space0
 70
     0
 10
0.0
 20
0.0
 30
0.0
  3
*Paper_Space0
  1

  0
ENDBLK
  5
25
330
23
100
AcDbEntity
  8
0
100
AcDbBlockEnd
  0
ENDSEC
  0
SECTION
  2
ENTITIES
  0
LINE
  5
4A
330
1F
100
AcDbEntity
  8
1
  6
Continuous
 62
     4
100
AcDbLine
 10
252.538399244265
 20
-5.14000551240333
 30
0.0
 11
254.3031051266179
 21
-5.14000551240333
 31
0.0
  0
LINE
  5
4B
330
1F
100
AcDbEntity
  8
1
  6
Continuous
 62
     4
100
AcDbLine
 10
254.3031051266179
 20
-5.14000551240333
 30
0.0
 11
256.3619286560297
 21
-5.14000551240333
 31
0.0
  0
LINE
  5
4C
330
1F
100
AcDbEntity
  8
1
  6
Continuous
 62
     4
100
AcDbLine
 10
256.3619286560297
 20
-8.14000551240333
 30
0.0
 11
256.3619286560297
 21
-11.14000551240333
 31
0.0
  0
LINE
  5
4D
330
1F
100
AcDbEntity
  8
1
  6
Continuous
 62
     4
100
AcDbLine
 10
248.7148698325003
 20
-8.14000551240333
 30
0.0
 11
256.3619286560297
 21
-8.14000551240333
 31
0.0
  0
LINE
  5
4E
330
1F
100
AcDbEntity
  8
1
  6
Continuous
 62
     4
100
AcDbLine
 10
256.3619286560297
 20
-11.14000551240333
 30
0.0
 11
248.7148698325003
 21
-11.14000551240333
 31
0.0
  0
LINE
  5
4F
330
1F
100
AcDbEntity
  8
1
  6
Continuous
 62
     4
100
AcDbLine
 10
256.3619286560297
 20
-5.14000551240333
 30
0.0
 11
256.3619286560297
 21
-8.14000551240333
 31
0.0
  0
LINE
  5
50
330
1F
100
AcDbEntity
  8
1
  6
Continuous
 62
     4
100
AcDbLine
 10
248.7148698325003
 20
-5.14000551240333
 30
0.0
 11
252.538399244265
 21
-5.14000551240333
 31
0.0
  0
LINE
  5
51
330
1F
100
AcDbEntity
  8
1
  6
Continuous
 62
     4
100
AcDbLine
 10
256.3619286560297
 20
-1.47333884573667
 30
0.0
 11
254.3031051266179
 21
-5.14000551240333
 31
0.0
  0
LINE
  5
52
330
1F
100
AcDbEntity
  8
1
  6
Continuous
 62
     4
100
AcDbLine
 10
249.0089874795591
 20
-1.47333884573667
 30
0.0
 11
250.4795757148532
 21
-4.47333884573667
 31
0.0
  0
LINE
  5
53
330
1F
100
AcDbEntity
  8
1
  6
Continuous
 62
     4
100
AcDbLine
 10
252.538399244265
 20
-1.14000551240333
 30
0.0
 11
252.538399244265
 21
-5.14000551240333
 31
0.0
  0
LINE
  5
54
330
1F
100
AcDbEntity
  8
1
  6
Continuous
 62
     4
100
AcDbLine
 10
238.1266345383826
 20
-3.47333884573667
 30
0.0
 11
239.8913404207356
 21
-3.47333884573667
 31
0.0
  0
LINE
  5
55
330
1F
100
AcDbEntity
  8
1
  6
Continuous
 62
     4
100
AcDbLine
 10
238.1266345383826
 20
-3.47333884573667
 30
0.0
 11
238.1266345383826
 21
-11.14000551240333
 31
0.0
  0
LINE
  5
56
330
1F
100
AcDbEntity
  8
1
  6
Continuous
 62
     4
100
AcDbLine
 10
244.8913404207356
 20
-4.47333884573667
 30
0.0
 11
244.8913404207356
 21
-7.80667217907
 31
0.0
  0
LINE
  5
57
330
1F
100
AcDbEntity
  8
1
  6
Continuous
 62
     4
100
AcDbLine
 10
240.7736933619121
 20
-7.80667217907
 30
0.0
 11
240.7736933619121
 21
-4.47333884573667
 31
0.0
  0
LINE
  5
58
330
1F
100
AcDbEntity
  8
1
  6
Continuous
 62
     4
100
AcDbLine
 10
244.8913404207356
 20
-7.80667217907
 30
0.0
 11
244.8913404207356
 21
-11.14000551240333
 31
0.0
  0
LINE
  5
59
330
1F
100
AcDbEntity
  8
1
  6
Continuous
 62
     4
100
AcDbLine
 10
240.7736933619121
 20
-7.80667217907
 30
0.0
 11
244.8913404207356
 21
-7.80667217907
 31
0.0
  0
LINE
  5
5A
330
1F
100
AcDbEntity
  8
1
  6
Continuous
 62
     4
100
AcDbLine
 10
240.7736933619121
 20
-4.47333884573667
 30
0.0
 11
244.8913404207356
 21
-4.47333884573667
 31
0.0
  0
LINE
  5
5B
330
1F
100
AcDbEntity
  8
1
  6
Continuous
 62
     4
100
AcDbLine
 10
240.7736933619121
 20
-11.14000551240333
 30
0.0
 11
240.7736933619121
 21
-7.80667217907
 31
0.0
  0
LINE
  5
5C
330
1F
100
AcDbEntity
  8
1
  6
Continuous
 62
     4
100
AcDbLine
 10
244.8913404207356
 20
-11.14000551240333
 30
0.0
 11
240.7736933619121
 21
-11.14000551240333
 31
0.0
  0
LINE
  5
5D
330
1F
100
AcDbEntity
  8
1
  6
Continuous
 62
     4
100
AcDbLine
 10
244.8913404207356
 20
-1.14000551240333
 30
0.0
 11
244.8913404207356
 21
-4.47333884573667
 31
0.0
  0
LINE
  5
5E
330
1F
100
AcDbEntity
  8
1
  6
Continuous
 62
     4
100
AcDbLine
 10
240.7736933619121
 20
-1.14000551240333
 30
0.0
 11
244.8913404207356
 21
-1.14000551240333
 31
0.0
  0
LINE
  5
5F
330
1F
100
AcDbEntity
  8
1
  6
Continuous
 62
     4
100
AcDbLine
 10
240.7736933619121
 20
-4.47333884573667
 30
0.0
 11
240.7736933619121
 21
-1.14000551240333
 31
0.0
  0
LINE
  5
60
330
1F
100
AcDbEntity
  8
1
  6
Continuous
 62
     4
100
AcDbLine
 10
238.1266345383826
 20
-3.47333884573667
 30
0.0
 11
239.8913404207356
 21
-7.47333884573667
 31
0.0
  0
LINE
  5
61
330
1F
100
AcDbEntity
  8
1
  6
Continuous
 62
     4
100
AcDbLine
 10
238.1266345383826
 20
-3.47333884573667
 30
0.0
 11
236.3619286560297
 21
-8.14000551240333
 31
0.0
  0
LINE
  5
62
330
1F
100
AcDbEntity
  8
1
  6
Continuous
 62
     4
100
AcDbLine
 10
238.1266345383826
 20
-1.14000551240333
 30
0.0
 11
238.1266345383826
 21
-3.47333884573667
 31
0.0
  0
LINE
  5
63
330
1F
100
AcDbEntity
  8
1
  6
Continuous
 62
     4
100
AcDbLine
 10
236.3619286560297
 20
-3.47333884573667
 30
0.0
 11
238.1266345383826
 21
-3.47333884573667
 31
0.0
  0
LINE
  5
8B
330
1F
100
AcDbEntity
  8
1
  6
Continuous
 62
     4
100
AcDbLine
 10
24.0
 20
-197.1479959956
 30
0.0
 11
25.400402932418
 21
-199.920186925965
 31
0.0
  0
LINE
  5
8C
330
1F
100
AcDbEntity
  8
1
  6
Continuous
 62
     4
100
AcDbLine
 10
24.0
 20
-197.1479959956
 30
0.0
 11
26.5988799801905
 21
-198.848582299228
 31
0.0
  0
LINE
  5
8D
330
1F
100
AcDbEntity
  8
1
  6
Continuous
 62
     4
100
AcDbLine
 10
105.0
 20
0.0
 30
0.0
 11
106.218774871777
 21
-2.85670417429674
 31
0.0
  0
LINE
  5
8E
330
1F
100
AcDbEntity
  8
1
  6
Continuous
 62
     4
100
AcDbLine
 10
105.0
 20
0.0
 30
0.0
 11
107.483842087602
 21
-1.86459095014933
 31
0.0
  0
LINE
  5
8F
330
1F
100
AcDbEntity
  8
100
  6
Continuous
 62
     3
100
AcDbLine
 10
-43.0
 20
72.0
 30
0.0
 11
-43.0
 21
101.0
 31
0.0
  0
LINE
  5
90
330
1F
100
AcDbEntity
  8
100
  6
Continuous
 62
     3
100
AcDbLine
 10
-38.0
 20
72.0
 30
0.0
 11
-37.5
 21
72.0
 31
0.0
  0
LINE
  5
91
330
1F
100
AcDbEntity
  8
100
  6
Continuous
 62
     3
100
AcDbLine
 10
43.0
 20
72.0
 30
0.0
 11
43.0
 21
101.0
 31
0.0
  0
LINE
  5
92
330
1F
100
AcDbEntity
  8
100
  6
Continuous
 62
     3
100
AcDbLine
 10
38.0
 20
72.0
 30
0.0
 11
37.5
 21
72.0
 31
0.0
  0
LINE
  5
93
330
1F
100
AcDbEntity
  8
100
  6
Continuous
 62
     3
100
AcDbLine
 10
-43.0
 20
101.0
 30
0.0
 11
43.0
 21
101.0
 31
0.0
  0
LINE
  5
94
330
1F
100
AcDbEntity
  8
100
  6
Continuous
 62
     3
100
AcDbLine
 10
-46.55
 20
-67.0
 30
0.0
 11
-46.55
 21
-90.0
 31
0.0
  0
LINE
  5
95
330
1F
100
AcDbEntity
  8
100
  6
Continuous
 62
     3
100
AcDbLine
 10
46.55
 20
-67.0
 30
0.0
 11
46.55
 21
-90.0
 31
0.0
  0
LINE
  5
96
330
1F
100
AcDbEntity
  8
100
  6
Continuous
 62
     3
100
AcDbLine
 10
-46.55
 20
-90.0
 30
0.0
 11
46.55
 21
-90.0
 31
0.0
  0
LINE
  5
97
330
1F
100
AcDbEntity
  8
100
  6
Continuous
 62
     3
100
AcDbLine
 10
-46.55
 20
-67.0
 30
0.0
 11
46.55
 21
-67.0
 31
0.0
  0
LINE
  5
98
330
1F
100
AcDbEntity
  8
100
  6
Continuous
 62
     3
100
AcDbLine
 10
36.2601387097952
 20
-113.9999959956
 30
0.0
 11
-36.2601387097952
 21
-113.9999959956
 31
0.0
  0
LINE
  5
99
330
1F
100
AcDbEntity
  8
100
  6
Continuous
 62
     3
100
AcDbLine
 10
-21.0
 20
159.0
 30
0.0
 11
21.0
 21
159.0
 31
0.0
  0
LINE
  5
9A
330
1F
100
AcDbEntity
  8
100
  6
Continuous
 62
     3
100
AcDbLine
 10
-21.0
 20
128.0
 30
0.0
 11
-21.0
 21
159.0
 31
0.0
  0
LINE
  5
9B
330
1F
100
AcDbEntity
  8
100
  6
Continuous
 62
     3
100
AcDbLine
 10
-44.0
 20
103.5
 30
0.0
 11
-44.0
 21
103.808674427162
 31
0.0
  0
LINE
  5
9C
330
1F
100
AcDbEntity
  8
100
  6
Continuous
 62
     3
100
AcDbLine
 10
-28.8675000000001
 20
108.0
 30
0.0
 11
-28.8675000000001
 21
128.0
 31
0.0
  0
LINE
  5
9D
330
1F
100
AcDbEntity
  8
100
  6
Continuous
 62
     3
100
AcDbLine
 10
-41.8275661235291
 20
106.287121609314
 30
0.0
 11
-28.8675000000001
 21
108.0
 31
0.0
  0
LINE
  5
9E
330
1F
100
AcDbEntity
  8
100
  6
Continuous
 62
     3
100
AcDbLine
 10
41.827566123529
 20
106.287121609314
 30
0.0
 11
28.8675000000001
 21
108.0
 31
0.0
  0
LINE
  5
9F
330
1F
100
AcDbEntity
  8
100
  6
Continuous
 62
     3
100
AcDbLine
 10
28.8675000000001
 20
108.0
 30
0.0
 11
28.8675000000001
 21
128.0
 31
0.0
  0
LINE
  5
A0
330
1F
100
AcDbEntity
  8
100
  6
Continuous
 62
     3
100
AcDbLine
 10
21.0
 20
128.0
 30
0.0
 11
21.0
 21
159.0
 31
0.0
  0
LINE
  5
A1
330
1F
100
AcDbEntity
  8
2
  6
PHANTOM
 62
     6
100
AcDbLine
 10
17.5
 20
169.253498853239
 30
0.0
 11
17.5
 21
166.0
 31
0.0
  0
LINE
  5
A2
330
1F
100
AcDbEntity
  8
2
  6
PHANTOM
 62
     6
100
AcDbLine
 10
17.5
 20
166.0
 30
0.0
 11
-17.5
 21
166.0
 31
0.0
  0
LINE
  5
A3
330
1F
100
AcDbEntity
  8
2
  6
PHANTOM
 62
     6
100
AcDbLine
 10
30.4003163308657
 20
184.0
 30
0.0
 11
19.5437523009056
 21
173.378717831694
 31
0.0
  0
LINE
  5
A4
330
1F
100
AcDbEntity
  8
100
  6
Continuous
 62
     3
100
AcDbLine
 10
-32.5
 20
-67.0
 30
0.0
 11
-32.5
 21
-44.9959999359978
 31
0.0
  0
LINE
  5
A5
330
1F
100
AcDbEntity
  8
100
  6
Continuous
 62
     3
100
AcDbLine
 10
32.5
 20
-67.0
 30
0.0
 11
32.5
 21
-44.995999935998
 31
0.0
  0
LINE
  5
A6
330
1F
100
AcDbEntity
  8
100
  6
Continuous
 62
     3
100
AcDbLine
 10
105.0
 20
87.0
 30
0.0
 11
105.0
 21
-87.0
 31
0.0
  0
LINE
  5
A7
330
1F
100
AcDbEntity
  8
100
  6
Continuous
 62
     3
100
AcDbLine
 10
-32.5
 20
72.0
 30
0.0
 11
-32.5
 21
44.995999935998
 31
0.0
  0
LINE
  5
A8
330
1F
100
AcDbEntity
  8
100
  6
Continuous
 62
     3
100
AcDbLine
 10
32.5
 20
44.995999935998
 30
0.0
 11
32.5
 21
72.0
 31
0.0
  0
LINE
  5
A9
330
1F
100
AcDbEntity
  8
100
  6
Continuous
 62
     3
100
AcDbLine
 10
87.0
 20
87.0
 30
0.0
 11
105.0
 21
87.0
 31
0.0
  0
LINE
  5
AA
330
1F
100
AcDbEntity
  8
100
  6
Continuous
 62
     3
100
AcDbLine
 10
87.0
 20
-87.0
 30
0.0
 11
105.0
 21
-87.0
 31
0.0
  0
LINE
  5
AB
330
1F
100
AcDbEntity
  8
100
  6
Continuous
 62
     3
100
AcDbLine
 10
87.0
 20
87.0
 30
0.0
 11
87.0
 21
-87.0
 31
0.0
  0
LINE
  5
AC
330
1F
100
AcDbEntity
  8
100
  6
Continuous
 62
     3
100
AcDbLine
 10
87.0
 20
42.0
 30
0.0
 11
57.0
 21
36.0
 31
0.0
  0
LINE
  5
AD
330
1F
100
AcDbEntity
  8
100
  6
Continuous
 62
     3
100
AcDbLine
 10
87.0
 20
-42.0
 30
0.0
 11
57.0
 21
-36.0
 31
0.0
  0
LINE
  5
AE
330
1F
100
AcDbEntity
  8
100
  6
Continuous
 62
     3
100
AcDbLine
 10
-105.0
 20
87.0
 30
0.0
 11
-105.0
 21
-87.0
 31
0.0
  0
LINE
  5
AF
330
1F
100
AcDbEntity
  8
100
  6
Continuous
 62
     3
100
AcDbLine
 10
-87.0
 20
42.0
 30
0.0
 11
-57.0
 21
36.0
 31
0.0
  0
LINE
  5
B0
330
1F
100
AcDbEntity
  8
100
  6
Continuous
 62
     3
100
AcDbLine
 10
-87.0
 20
87.0
 30
0.0
 11
-105.0
 21
87.0
 31
0.0
  0
LINE
  5
B1
330
1F
100
AcDbEntity
  8
100
  6
Continuous
 62
     3
100
AcDbLine
 10
-87.0
 20
87.0
 30
0.0
 11
-87.0
 21
-87.0
 31
0.0
  0
LINE
  5
B2
330
1F
100
AcDbEntity
  8
100
  6
Continuous
 62
     3
100
AcDbLine
 10
-87.0
 20
-42.0
 30
0.0
 11
-57.0
 21
-36.0
 31
0.0
  0
LINE
  5
B3
330
1F
100
AcDbEntity
  8
100
  6
Continuous
 62
     3
100
AcDbLine
 10
-87.0
 20
-87.0
 30
0.0
 11
-105.0
 21
-87.0
 31
0.0
  0
LINE
  5
B4
330
1F
100
AcDbEntity
  8
2
  6
CENTER
 62
     1
100
AcDbLine
 10
81.0
 20
70.0
 30
0.0
 11
111.0
 21
70.0
 31
0.0
  0
LINE
  5
B5
330
1F
100
AcDbEntity
  8
2
  6
CENTER
 62
     1
100
AcDbLine
 10
81.0
 20
-70.0
 30
0.0
 11
111.0
 21
-70.0
 31
0.0
  0
LINE
  5
B6
330
1F
100
AcDbEntity
  8
2
  6
DASHED
 62
     3
100
AcDbLine
 10
87.0
 20
-60.5
 30
0.0
 11
105.0
 21
-60.5
 31
0.0
  0
LINE
  5
B7
330
1F
100
AcDbEntity
  8
2
  6
DASHED
 62
     3
100
AcDbLine
 10
87.0
 20
-79.5
 30
0.0
 11
105.0
 21
-79.5
 31
0.0
  0
LINE
  5
B8
330
1F
100
AcDbEntity
  8
2
  6
CENTER
 62
     1
100
AcDbLine
 10
-81.0
 20
70.0
 30
0.0
 11
-111.0
 21
70.0
 31
0.0
  0
LINE
  5
B9
330
1F
100
AcDbEntity
  8
2
  6
DASHED
 62
     3
100
AcDbLine
 10
-87.0
 20
-60.5
 30
0.0
 11
-105.0
 21
-60.5
 31
0.0
  0
LINE
  5
BA
330
1F
100
AcDbEntity
  8
2
  6
CENTER
 62
     1
100
AcDbLine
 10
-81.0
 20
-70.0
 30
0.0
 11
-111.0
 21
-70.0
 31
0.0
  0
LINE
  5
BB
330
1F
100
AcDbEntity
  8
2
  6
DASHED
 62
     3
100
AcDbLine
 10
-87.0
 20
-79.5
 30
0.0
 11
-105.0
 21
-79.5
 31
0.0
  0
LINE
  5
BC
330
1F
100
AcDbEntity
  8
100
  6
Continuous
 62
     3
100
AcDbLine
 10
48.8799549917962
 20
36.0
 30
0.0
 11
57.0
 21
36.0
 31
0.0
  0
LINE
  5
BD
330
1F
100
AcDbEntity
  8
100
  6
Continuous
 62
     3
100
AcDbLine
 10
48.8799549917962
 20
-36.0
 30
0.0
 11
57.0
 21
-36.0
 31
0.0
  0
LINE
  5
BE
330
1F
100
AcDbEntity
  8
100
  6
Continuous
 62
     3
100
AcDbLine
 10
-57.0
 20
36.0
 30
0.0
 11
-48.879954991796
 21
36.0
 31
0.0
  0
LINE
  5
BF
330
1F
100
AcDbEntity
  8
100
  6
Continuous
 62
     3
100
AcDbLine
 10
-57.0
 20
-36.0
 30
0.0
 11
-48.879954991796
 21
-36.0
 31
0.0
  0
LINE
  5
C0
330
1F
100
AcDbEntity
  8
100
  6
Continuous
 62
     3
100
AcDbLine
 10
-29.6500000000001
 20
-113.9999959956
 30
0.0
 11
-29.6500000000001
 21
-90.0
 31
0.0
  0
LINE
  5
C1
330
1F
100
AcDbEntity
  8
100
  6
Continuous
 62
     3
100
AcDbLine
 10
29.6499999999996
 20
-113.9999959956
 30
0.0
 11
29.6500000000001
 21
-90.0
 31
0.0
  0
LINE
  5
C2
330
1F
100
AcDbEntity
  8
100
  6
Continuous
 62
     3
100
AcDbLine
 10
24.0
 20
-142.9999959956
 30
0.0
 11
24.0
 21
-197.1479959956
 31
0.0
  0
LINE
  5
C3
330
1F
100
AcDbEntity
  8
100
  6
Continuous
 62
     3
100
AcDbLine
 10
-24.0
 20
-142.9999959956
 30
0.0
 11
-24.0
 21
-197.1479959956
 31
0.0
  0
LINE
  5
C4
330
1F
100
AcDbEntity
  8
100
  6
Continuous
 62
     3
100
AcDbLine
 10
23.504625
 20
-212.9999959956
 30
0.0
 11
-23.504625
 21
-212.9999959956
 31
0.0
  0
LINE
  5
C5
330
1F
100
AcDbEntity
  8
100
  6
Continuous
 62
     3
100
AcDbLine
 10
24.0
 20
-183.9999959956
 30
0.0
 11
-24.0
 21
-183.9999959956
 31
0.0
  0
LINE
  5
C6
330
1F
100
AcDbEntity
  8
100
  6
Continuous
 62
     3
100
AcDbLine
 10
23.504625
 20
-212.9999959956
 30
0.0
 11
24.0
 21
-197.1479959956
 31
0.0
  0
LINE
  5
C7
330
1F
100
AcDbEntity
  8
2
  6
Continuous
 62
     3
100
AcDbLine
 10
22.0249030082557
 20
-212.9999959956
 30
0.0
 11
22.9311530082557
 21
-183.9999959956
 31
0.0
  0
LINE
  5
C8
330
1F
100
AcDbEntity
  8
2
  6
Continuous
 62
     3
100
AcDbLine
 10
24.0
 20
-182.148698700382
 30
0.0
 11
22.9311530082557
 21
-183.9999959956
 31
0.0
  0
LINE
  5
C9
330
1F
100
AcDbEntity
  8
2
  6
Continuous
 62
     3
100
AcDbLine
 10
-22.0249030082557
 20
-212.9999959956
 30
0.0
 11
-22.9311530082557
 21
-183.9999959956
 31
0.0
  0
LINE
  5
CA
330
1F
100
AcDbEntity
  8
2
  6
Continuous
 62
     3
100
AcDbLine
 10
-24.0
 20
-182.148698700382
 30
0.0
 11
-22.9311530082557
 21
-183.9999959956
 31
0.0
  0
LINE
  5
CB
330
1F
100
AcDbEntity
  8
100
  6
Continuous
 62
     3
100
AcDbLine
 10
-23.504625
 20
-212.9999959956
 30
0.0
 11
-24.0
 21
-197.1479959956
 31
0.0
  0
LINE
  5
CC
330
1F
100
AcDbEntity
  8
100
  6
Continuous
 62
     3
100
AcDbLine
 10
-14.4337567297407
 20
108.0
 30
0.0
 11
-14.4337567297407
 21
128.0
 31
0.0
  0
LINE
  5
CD
330
1F
100
AcDbEntity
  8
100
  6
Continuous
 62
     3
100
AcDbLine
 10
14.4337567297407
 20
108.0
 30
0.0
 11
14.4337567297407
 21
128.0
 31
0.0
  0
LINE
  5
CE
330
1F
100
AcDbEntity
  8
100
  6
Continuous
 62
     3
100
AcDbLine
 10
-43.0
 20
72.0
 30
0.0
 11
43.0
 21
72.0
 31
0.0
  0
LINE
  5
CF
330
1F
100
AcDbEntity
  8
100
  6
Continuous
 62
     3
100
AcDbLine
 10
-17.7463687912523
 20
42.0
 30
0.0
 11
17.7463687912521
 21
42.0
 31
0.0
  0
LINE
  5
D0
330
1F
100
AcDbEntity
  8
100
  6
Continuous
 62
     3
100
AcDbLine
 10
-17.7463687912523
 20
-42.0
 30
0.0
 11
17.7463687912521
 21
-42.0
 31
0.0
  0
LINE
  5
D1
330
1F
100
AcDbEntity
  8
100
  6
Continuous
 62
     3
100
AcDbLine
 10
-32.9107751833978
 20
-90.0
 30
0.0
 11
-32.9107751833978
 21
-67.0
 31
0.0
  0
LINE
  5
D2
330
1F
100
AcDbEntity
  8
100
  6
Continuous
 62
     3
100
AcDbLine
 10
32.9107751833976
 20
-90.0
 30
0.0
 11
32.9107751833976
 21
-67.0
 31
0.0
  0
LINE
  5
D3
330
1F
100
AcDbEntity
  8
100
  6
Continuous
 62
     3
100
AcDbLine
 10
-0.00000000000023
 20
-90.0
 30
0.0
 11
-0.00000000000023
 21
-67.0
 31
0.0
  0
LINE
  5
D4
330
1F
100
AcDbEntity
  8
100
  6
Continuous
 62
     3
100
AcDbLine
 10
33.5
 20
-142.9999959956
 30
0.0
 11
-33.5
 21
-142.9999959956
 31
0.0
  0
LINE
  5
D5
330
1F
100
AcDbEntity
  8
100
  6
Continuous
 62
     3
100
AcDbLine
 10
-33.5
 20
-142.9999959956
 30
0.0
 11
-33.5
 21
-137.9999959956
 31
0.0
  0
LINE
  5
D6
330
1F
100
AcDbEntity
  8
100
  6
Continuous
 62
     3
100
AcDbLine
 10
33.5
 20
-142.9999959956
 30
0.0
 11
33.5
 21
-137.9999959956
 31
0.0
  0
LINE
  5
D7
330
1F
100
AcDbEntity
  8
100
  6
Continuous
 62
     3
100
AcDbLine
 10
-36.2601387097952
 20
-137.9999959956
 30
0.0
 11
36.2601387097952
 21
-137.9999959956
 31
0.0
  0
LINE
  5
D8
330
1F
100
AcDbEntity
  8
100
  6
Continuous
 62
     3
100
AcDbLine
 10
-36.2601387097952
 20
-137.9999959956
 30
0.0
 11
-36.2601387097952
 21
-113.9999959956
 31
0.0
  0
LINE
  5
D9
330
1F
100
AcDbEntity
  8
100
  6
Continuous
 62
     3
100
AcDbLine
 10
36.2601387097952
 20
-137.9999959956
 30
0.0
 11
36.2601387097952
 21
-113.9999959956
 31
0.0
  0
LINE
  5
DA
330
1F
100
AcDbEntity
  8
100
  6
Continuous
 62
     3
100
AcDbLine
 10
-25.6397899684612
 20
-137.9999959956
 30
0.0
 11
-25.6397899684612
 21
-113.9999959956
 31
0.0
  0
LINE
  5
DB
330
1F
100
AcDbEntity
  8
100
  6
Continuous
 62
     3
100
AcDbLine
 10
25.6397899684609
 20
-137.9999959956
 30
0.0
 11
25.6397899684609
 21
-113.9999959956
 31
0.0
  0
LINE
  5
DC
330
1F
100
AcDbEntity
  8
100
  6
Continuous
 62
     3
100
AcDbLine
 10
0.00000000000024
 20
-137.9999959956
 30
0.0
 11
-0.00000000000001
 21
-113.9999959956
 31
0.0
  0
LINE
  5
DD
330
1F
100
AcDbEntity
  8
2
  6
CENTER
 62
     1
100
AcDbLine
 10
55.0000000000001
 20
291.335052490234
 30
0.0
 11
55.0000000000001
 21
226.5
 31
0.0
  0
LINE
  5
DE
330
1F
100
AcDbEntity
  8
100
  6
Continuous
 62
     3
100
AcDbLine
 10
60.5000000000001
 20
243.5
 30
0.0
 11
60.5000000000001
 21
239.5
 31
0.0
  0
LINE
  5
DF
330
1F
100
AcDbEntity
  8
100
  6
Continuous
 62
     3
100
AcDbLine
 10
60.5000000000001
 20
239.5
 30
0.0
 11
49.5000000000001
 21
239.5
 31
0.0
  0
LINE
  5
E0
330
1F
100
AcDbEntity
  8
100
  6
Continuous
 62
     3
100
AcDbLine
 10
50.0000000000001
 20
239.5
 30
0.0
 11
50.0000000000001
 21
231.5
 31
0.0
  0
LINE
  5
E1
330
1F
100
AcDbEntity
  8
100
  6
Continuous
 62
     3
100
AcDbLine
 10
60.0000000000001
 20
239.5
 30
0.0
 11
60.0000000000001
 21
231.5
 31
0.0
  0
LINE
  5
E2
330
1F
100
AcDbEntity
  8
100
  6
Continuous
 62
     3
100
AcDbLine
 10
49.5000000000001
 20
243.5
 30
0.0
 11
49.5000000000001
 21
239.5
 31
0.0
  0
LINE
  5
E3
330
1F
100
AcDbEntity
  8
100
  6
Continuous
 62
     3
100
AcDbLine
 10
17.5
 20
199.753498853239
 30
0.0
 11
17.5
 21
196.5
 31
0.0
  0
LINE
  5
E4
330
1F
100
AcDbEntity
  8
100
  6
Continuous
 62
     3
100
AcDbLine
 10
17.5
 20
196.5
 30
0.0
 11
-17.5
 21
196.5
 31
0.0
  0
LINE
  5
E5
330
1F
100
AcDbEntity
  8
100
  6
Continuous
 62
     3
100
AcDbLine
 10
30.4003163308657
 20
214.5
 30
0.0
 11
19.5437523009059
 21
203.878717831695
 31
0.0
  0
LINE
  5
E6
330
1F
100
AcDbEntity
  8
100
  6
Continuous
 62
     3
100
AcDbLine
 10
-61.5
 20
214.5
 30
0.0
 11
61.5
 21
214.5
 31
0.0
  0
LINE
  5
E7
330
1F
100
AcDbEntity
  8
100
  6
Continuous
 62
     3
100
AcDbLine
 10
-61.5
 20
231.5
 30
0.0
 11
61.5
 21
231.5
 31
0.0
  0
LINE
  5
E8
330
1F
100
AcDbEntity
  8
100
  6
Continuous
 62
     3
100
AcDbLine
 10
10.5
 20
196.5
 30
0.0
 11
10.5
 21
159.0
 31
0.0
  0
LINE
  5
E9
330
1F
100
AcDbEntity
  8
100
  6
Continuous
 62
     3
100
AcDbLine
 10
-30.4003163308657
 20
214.5
 30
0.0
 11
-19.5437523009054
 21
203.878717831694
 31
0.0
  0
LINE
  5
EA
330
1F
100
AcDbEntity
  8
100
  6
Continuous
 62
     3
100
AcDbLine
 10
-10.5
 20
196.5
 30
0.0
 11
-10.5
 21
159.0
 31
0.0
  0
LINE
  5
EB
330
1F
100
AcDbEntity
  8
2
  6
PHANTOM
 62
     6
100
AcDbLine
 10
49.5000000000001
 20
213.0
 30
0.0
 11
49.5000000000001
 21
209.0
 31
0.0
  0
LINE
  5
EC
330
1F
100
AcDbEntity
  8
2
  6
PHANTOM
 62
     6
100
AcDbLine
 10
50.0000000000001
 20
209.0
 30
0.0
 11
50.0000000000001
 21
201.0
 31
0.0
  0
LINE
  5
ED
330
1F
100
AcDbEntity
  8
2
  6
PHANTOM
 62
     6
100
AcDbLine
 10
60.5000000000001
 20
213.0
 30
0.0
 11
60.5000000000001
 21
209.0
 31
0.0
  0
LINE
  5
EE
330
1F
100
AcDbEntity
  8
2
  6
PHANTOM
 62
     6
100
AcDbLine
 10
60.0000000000001
 20
209.0
 30
0.0
 11
60.0000000000001
 21
201.0
 31
0.0
  0
LINE
  5
EF
330
1F
100
AcDbEntity
  8
2
  6
CENTER
 62
     1
100
AcDbLine
 10
479.474487304688
 20
59.4744873046875
 30
0.0
 11
458.44140625
 21
38.44140625
 31
0.0
  0
LINE
  5
F0
330
1F
100
AcDbEntity
  8
2
  6
CENTER
 62
     1
100
AcDbLine
 10
360.525512695313
 20
59.4744873046875
 30
0.0
 11
381.55859375
 21
38.44140625
 31
0.0
  0
LINE
  5
F1
330
1F
100
AcDbEntity
  8
2
  6
CENTER
 62
     1
100
AcDbLine
 10
360.525512695313
 20
-59.4744873046875
 30
0.0
 11
381.55859375
 21
-38.4413452148438
 31
0.0
  0
LINE
  5
F2
330
1F
100
AcDbEntity
  8
2
  6
CENTER
 62
     1
100
AcDbLine
 10
479.474487304688
 20
-59.4744873046875
 30
0.0
 11
458.44140625
 21
-38.4413452148438
 31
0.0
  0
LINE
  5
F3
330
1F
100
AcDbEntity
  8
2
  6
CENTER
 62
     1
100
AcDbLine
 10
320.5
 20
0.0
 30
0.0
 11
519.5
 21
0.0
 31
0.0
  0
LINE
  5
F4
330
1F
100
AcDbEntity
  8
100
  6
Continuous
 62
     3
100
AcDbLine
 10
444.0
 20
-142.9999959956
 30
0.0
 11
444.0
 21
-197.1479959956
 31
0.0
  0
LINE
  5
F5
330
1F
100
AcDbEntity
  8
100
  6
Continuous
 62
     3
100
AcDbLine
 10
444.0
 20
-183.9999959956
 30
0.0
 11
396.0
 21
-183.9999959956
 31
0.0
  0
LINE
  5
F6
330
1F
100
AcDbEntity
  8
2
  6
Continuous
 62
     3
100
AcDbLine
 10
444.0
 20
-182.148698700382
 30
0.0
 11
442.931153008256
 21
-183.9999959956
 31
0.0
  0
LINE
  5
F7
330
1F
100
AcDbEntity
  8
100
  6
Continuous
 62
     3
100
AcDbLine
 10
443.504625
 20
-212.9999959956
 30
0.0
 11
444.0
 21
-197.1479959956
 31
0.0
  0
LINE
  5
F8
330
1F
100
AcDbEntity
  8
100
  6
Continuous
 62
     3
100
AcDbLine
 10
443.504625
 20
-212.9999959956
 30
0.0
 11
396.495375
 21
-212.9999959956
 31
0.0
  0
LINE
  5
F9
330
1F
100
AcDbEntity
  8
2
  6
Continuous
 62
     3
100
AcDbLine
 10
442.024903008256
 20
-212.9999959956
 30
0.0
 11
442.931153008256
 21
-183.9999959956
 31
0.0
  0
LINE
  5
FA
330
1F
100
AcDbEntity
  8
100
  6
Continuous
 62
     3
100
AcDbLine
 10
396.0
 20
-142.9999959956
 30
0.0
 11
396.0
 21
-197.1479959956
 31
0.0
  0
LINE
  5
FB
330
1F
100
AcDbEntity
  8
2
  6
Continuous
 62
     3
100
AcDbLine
 10
396.0
 20
-182.148698700382
 30
0.0
 11
397.068846991744
 21
-183.9999959956
 31
0.0
  0
LINE
  5
FC
330
1F
100
AcDbEntity
  8
100
  6
Continuous
 62
     3
100
AcDbLine
 10
396.495375
 20
-212.9999959956
 30
0.0
 11
396.0
 21
-197.1479959956
 31
0.0
  0
LINE
  5
FD
330
1F
100
AcDbEntity
  8
2
  6
Continuous
 62
     3
100
AcDbLine
 10
397.975096991744
 20
-212.9999959956
 30
0.0
 11
397.068846991744
 21
-183.9999959956
 31
0.0
  0
LINE
  5
FE
330
1F
100
AcDbEntity
  8
100
  6
Continuous
 62
     3
100
AcDbLine
 10
373.45
 20
-73.4989625777126
 30
0.0
 11
373.45
 21
-90.0
 31
0.0
  0
LINE
  5
FF
330
1F
100
AcDbEntity
  8
100
  6
Continuous
 62
     3
100
AcDbLine
 10
373.45
 20
-90.0
 30
0.0
 11
466.55
 21
-90.0
 31
0.0
  0
LINE
  5
100
330
1F
100
AcDbEntity
  8
100
  6
Continuous
 62
     3
100
AcDbLine
 10
456.260138709795
 20
-113.9999959956
 30
0.0
 11
383.739861290205
 21
-113.9999959956
 31
0.0
  0
LINE
  5
101
330
1F
100
AcDbEntity
  8
100
  6
Continuous
 62
     3
100
AcDbLine
 10
390.35
 20
-113.9999959956
 30
0.0
 11
390.35
 21
-90.0
 31
0.0
  0
LINE
  5
102
330
1F
100
AcDbEntity
  8
100
  6
Continuous
 62
     3
100
AcDbLine
 10
453.5
 20
-142.9999959956
 30
0.0
 11
386.5
 21
-142.9999959956
 31
0.0
  0
LINE
  5
103
330
1F
100
AcDbEntity
  8
100
  6
Continuous
 62
     3
100
AcDbLine
 10
386.5
 20
-142.9999959956
 30
0.0
 11
386.5
 21
-137.9999959956
 31
0.0
  0
LINE
  5
104
330
1F
100
AcDbEntity
  8
100
  6
Continuous
 62
     3
100
AcDbLine
 10
383.739861290205
 20
-137.9999959956
 30
0.0
 11
456.260138709795
 21
-137.9999959956
 31
0.0
  0
LINE
  5
105
330
1F
100
AcDbEntity
  8
100
  6
Continuous
 62
     3
100
AcDbLine
 10
383.739861290205
 20
-137.9999959956
 30
0.0
 11
383.739861290205
 21
-113.9999959956
 31
0.0
  0
LINE
  5
106
330
1F
100
AcDbEntity
  8
100
  6
Continuous
 62
     3
100
AcDbLine
 10
394.360210031539
 20
-137.9999959956
 30
0.0
 11
394.360210031539
 21
-113.9999959956
 31
0.0
  0
LINE
  5
107
330
1F
100
AcDbEntity
  8
100
  6
Continuous
 62
     3
100
AcDbLine
 10
387.089224816602
 20
-90.0
 30
0.0
 11
387.089224816602
 21
-80.5349667959691
 31
0.0
  0
LINE
  5
108
330
1F
100
AcDbEntity
  8
100
  6
Continuous
 62
     3
100
AcDbLine
 10
466.55
 20
-73.4989625777126
 30
0.0
 11
466.55
 21
-90.0
 31
0.0
  0
LINE
  5
109
330
1F
100
AcDbEntity
  8
100
  6
Continuous
 62
     3
100
AcDbLine
 10
449.65
 20
-113.9999959956
 30
0.0
 11
449.65
 21
-90.0
 31
0.0
  0
LINE
  5
10A
330
1F
100
AcDbEntity
  8
100
  6
Continuous
 62
     3
100
AcDbLine
 10
453.5
 20
-142.9999959956
 30
0.0
 11
453.5
 21
-137.9999959956
 31
0.0
  0
LINE
  5
10B
330
1F
100
AcDbEntity
  8
100
  6
Continuous
 62
     3
100
AcDbLine
 10
456.260138709795
 20
-137.9999959956
 30
0.0
 11
456.260138709795
 21
-113.9999959956
 31
0.0
  0
LINE
  5
10C
330
1F
100
AcDbEntity
  8
100
  6
Continuous
 62
     3
100
AcDbLine
 10
445.639789968461
 20
-137.9999959956
 30
0.0
 11
445.639789968461
 21
-113.9999959956
 31
0.0
  0
LINE
  5
10D
330
1F
100
AcDbEntity
  8
100
  6
Continuous
 62
     3
100
AcDbLine
 10
452.910775183398
 20
-90.0
 30
0.0
 11
452.910775183398
 21
-80.5349667959692
 31
0.0
  0
LINE
  5
10E
330
1F
100
AcDbEntity
  8
100
  6
Continuous
 62
     3
100
AcDbLine
 10
420.0
 20
-90.0
 30
0.0
 11
420.0
 21
-87.0
 31
0.0
  0
LINE
  5
10F
330
1F
100
AcDbEntity
  8
100
  6
Continuous
 62
     3
100
AcDbLine
 10
420.0
 20
-137.9999959956
 30
0.0
 11
420.0
 21
-113.9999959956
 31
0.0
  0
LINE
  5
110
330
1F
100
AcDbEntity
  8
100
  6
Continuous
 62
     3
100
AcDbLine
 10
463.0
 20
77.0
 30
0.0
 11
463.0
 21
101.0
 31
0.0
  0
LINE
  5
111
330
1F
100
AcDbEntity
  8
100
  6
Continuous
 62
     3
100
AcDbLine
 10
377.0
 20
101.0
 30
0.0
 11
463.0
 21
101.0
 31
0.0
  0
LINE
  5
112
330
1F
100
AcDbEntity
  8
100
  6
Continuous
 62
     3
100
AcDbLine
 10
377.0
 20
77.0
 30
0.0
 11
377.0
 21
101.0
 31
0.0
  0
LINE
  5
113
330
1F
100
AcDbEntity
  8
100
  6
Continuous
 62
     3
100
AcDbLine
 10
376.0
 20
103.5
 30
0.0
 11
376.0
 21
103.808674427162
 31
0.0
  0
LINE
  5
114
330
1F
100
AcDbEntity
  8
100
  6
Continuous
 62
     3
100
AcDbLine
 10
399.0
 20
128.0
 30
0.0
 11
399.0
 21
159.0
 31
0.0
  0
LINE
  5
115
330
1F
100
AcDbEntity
  8
100
  6
Continuous
 62
     3
100
AcDbLine
 10
378.172433876471
 20
106.287121609314
 30
0.0
 11
395.0
 21
108.511151495126
 31
0.0
  0
LINE
  5
116
330
1F
100
AcDbEntity
  8
100
  6
Continuous
 62
     3
100
AcDbLine
 10
399.0
 20
159.0
 30
0.0
 11
441.0
 21
159.0
 31
0.0
  0
LINE
  5
117
330
1F
100
AcDbEntity
  8
100
  6
Continuous
 62
     3
100
AcDbLine
 10
461.827566123529
 20
106.287121609314
 30
0.0
 11
445.0
 21
108.511151495127
 31
0.0
  0
LINE
  5
118
330
1F
100
AcDbEntity
  8
100
  6
Continuous
 62
     3
100
AcDbLine
 10
441.0
 20
128.0
 30
0.0
 11
441.0
 21
159.0
 31
0.0
  0
LINE
  5
119
330
1F
100
AcDbEntity
  8
100
  6
Continuous
 62
     3
100
AcDbLine
 10
420.0
 20
128.0
 30
0.0
 11
420.0
 21
108.511151495126
 31
0.0
  0
LINE
  5
11A
330
1F
100
AcDbEntity
  8
100
  6
Continuous
 62
     3
100
AcDbLine
 10
430.5
 20
195.5
 30
0.0
 11
429.5
 21
196.5
 31
0.0
  0
LINE
  5
11B
330
1F
100
AcDbEntity
  8
100
  6
Continuous
 62
     3
100
AcDbLine
 10
425.5
 20
243.5
 30
0.0
 11
425.5
 21
239.5
 31
0.0
  0
LINE
  5
11C
330
1F
100
AcDbEntity
  8
100
  6
Continuous
 62
     3
100
AcDbLine
 10
425.5
 20
239.5
 30
0.0
 11
414.5
 21
239.5
 31
0.0
  0
LINE
  5
11D
330
1F
100
AcDbEntity
  8
100
  6
Continuous
 62
     3
100
AcDbLine
 10
415.0
 20
239.5
 30
0.0
 11
415.0
 21
231.5
 31
0.0
  0
LINE
  5
11E
330
1F
100
AcDbEntity
  8
100
  6
Continuous
 62
     3
100
AcDbLine
 10
425.0
 20
239.5
 30
0.0
 11
425.0
 21
231.5
 31
0.0
  0
LINE
  5
11F
330
1F
100
AcDbEntity
  8
100
  6
Continuous
 62
     3
100
AcDbLine
 10
414.5
 20
243.5
 30
0.0
 11
414.5
 21
239.5
 31
0.0
  0
LINE
  5
120
330
1F
100
AcDbEntity
  8
100
  6
Continuous
 62
     3
100
AcDbLine
 10
437.5
 20
199.753498853239
 30
0.0
 11
437.5
 21
196.5
 31
0.0
  0
LINE
  5
121
330
1F
100
AcDbEntity
  8
100
  6
Continuous
 62
     3
100
AcDbLine
 10
437.5
 20
196.5
 30
0.0
 11
402.5
 21
196.5
 31
0.0
  0
LINE
  5
122
330
1F
100
AcDbEntity
  8
100
  6
Continuous
 62
     3
100
AcDbLine
 10
450.400316330866
 20
214.5
 30
0.0
 11
439.543752300906
 21
203.878717831695
 31
0.0
  0
LINE
  5
123
330
1F
100
AcDbEntity
  8
100
  6
Continuous
 62
     3
100
AcDbLine
 10
358.5
 20
214.5
 30
0.0
 11
481.5
 21
214.5
 31
0.0
  0
LINE
  5
124
330
1F
100
AcDbEntity
  8
100
  6
Continuous
 62
     3
100
AcDbLine
 10
358.5
 20
231.5
 30
0.0
 11
481.5
 21
231.5
 31
0.0
  0
LINE
  5
125
330
1F
100
AcDbEntity
  8
100
  6
Continuous
 62
     3
100
AcDbLine
 10
430.5
 20
195.5
 30
0.0
 11
430.5
 21
159.0
 31
0.0
  0
LINE
  5
126
330
1F
100
AcDbEntity
  8
100
  6
Continuous
 62
     3
100
AcDbLine
 10
409.5
 20
195.5
 30
0.0
 11
410.5
 21
196.5
 31
0.0
  0
LINE
  5
127
330
1F
100
AcDbEntity
  8
100
  6
Continuous
 62
     3
100
AcDbLine
 10
389.599683669134
 20
214.5
 30
0.0
 11
400.456247699095
 21
203.878717831694
 31
0.0
  0
LINE
  5
128
330
1F
100
AcDbEntity
  8
100
  6
Continuous
 62
     3
100
AcDbLine
 10
409.5
 20
195.5
 30
0.0
 11
409.5
 21
159.0
 31
0.0
  0
LINE
  5
129
330
1F
100
AcDbEntity
  8
2
  6
CENTER
 62
     1
100
AcDbLine
 10
-117.0
 20
408.0
 30
0.0
 11
117.0
 21
408.0
 31
0.0
  0
LINE
  5
12A
330
1F
100
AcDbEntity
  8
2
  6
CENTER
 62
     1
100
AcDbLine
 10
0.0
 20
326.0
 30
0.0
 11
0.0
 21
490.0
 31
0.0
  0
LINE
  5
12B
330
1F
100
AcDbEntity
  8
100
  6
Continuous
 62
     3
100
AcDbLine
 10
45.3859747225396
 20
418.194898623853
 30
0.0
 11
20.3820652087084
 21
418.926386020882
 31
0.0
  0
LINE
  5
12C
330
1F
100
AcDbEntity
  8
100
  6
Continuous
 62
     3
100
AcDbLine
 10
20.3820652087083
 20
397.073613979118
 30
0.0
 11
45.3859747225396
 21
397.805101376147
 31
0.0
  0
LINE
  5
12D
330
1F
100
AcDbEntity
  8
100
  6
Continuous
 62
     3
100
AcDbLine
 10
-13.8639461640062
 20
363.597143602836
 30
0.0
 11
-0.72850473871506
 21
384.885420737226
 31
0.0
  0
LINE
  5
12E
330
1F
100
AcDbEntity
  8
100
  6
Continuous
 62
     3
100
AcDbLine
 10
-19.6535604699932
 20
395.811806758109
 30
0.0
 11
-31.5220285585334
 21
373.792042226689
 31
0.0
  0
LINE
  5
12F
330
1F
100
AcDbEntity
  8
100
  6
Continuous
 62
     3
100
AcDbLine
 10
-31.5220285585334
 20
442.207957773311
 30
0.0
 11
-19.6535604699933
 21
420.188193241891
 31
0.0
  0
LINE
  5
130
330
1F
100
AcDbEntity
  8
100
  6
Continuous
 62
     3
100
AcDbLine
 10
-0.72850473871512
 20
431.114579262773
 30
0.0
 11
-13.8639461640063
 21
452.402856397164
 31
0.0
  0
LINE
  5
131
330
1F
100
AcDbEntity
  8
2
  6
CENTER
 62
     1
100
AcDbLine
 10
55.0000000000001
 20
395.0
 30
0.0
 11
55.0000000000001
 21
421.0
 31
0.0
  0
LINE
  5
132
330
1F
100
AcDbEntity
  8
100
  6
Continuous
 62
     3
100
AcDbLine
 10
105.0
 20
495.0
 30
0.0
 11
105.0
 21
321.0
 31
0.0
  0
LINE
  5
133
330
1F
100
AcDbEntity
  8
100
  6
Continuous
 62
     3
100
AcDbLine
 10
87.0
 20
495.0
 30
0.0
 11
105.0
 21
495.0
 31
0.0
  0
LINE
  5
134
330
1F
100
AcDbEntity
  8
100
  6
Continuous
 62
     3
100
AcDbLine
 10
87.0
 20
495.0
 30
0.0
 11
87.0
 21
321.0
 31
0.0
  0
LINE
  5
135
330
1F
100
AcDbEntity
  8
100
  6
Continuous
 62
     3
100
AcDbLine
 10
87.0
 20
450.0
 30
0.0
 11
59.7055095543115
 21
444.541101910862
 31
0.0
  0
LINE
  5
136
330
1F
100
AcDbEntity
  8
100
  6
Continuous
 62
     3
100
AcDbLine
 10
87.0
 20
321.0
 30
0.0
 11
105.0
 21
321.0
 31
0.0
  0
LINE
  5
137
330
1F
100
AcDbEntity
  8
100
  6
Continuous
 62
     3
100
AcDbLine
 10
87.0
 20
366.0
 30
0.0
 11
59.7055095543115
 21
371.458898089138
 31
0.0
  0
LINE
  5
138
330
1F
100
AcDbEntity
  8
100
  6
Continuous
 62
     3
100
AcDbLine
 10
-105.0
 20
495.0
 30
0.0
 11
-105.0
 21
321.0
 31
0.0
  0
LINE
  5
139
330
1F
100
AcDbEntity
  8
100
  6
Continuous
 62
     3
100
AcDbLine
 10
-87.0
 20
495.0
 30
0.0
 11
-87.0
 21
321.0
 31
0.0
  0
LINE
  5
13A
330
1F
100
AcDbEntity
  8
100
  6
Continuous
 62
     3
100
AcDbLine
 10
-87.0
 20
366.0
 30
0.0
 11
-59.7055095543115
 21
371.458898089138
 31
0.0
  0
LINE
  5
13B
330
1F
100
AcDbEntity
  8
100
  6
Continuous
 62
     3
100
AcDbLine
 10
-87.0
 20
321.0
 30
0.0
 11
-105.0
 21
321.0
 31
0.0
  0
LINE
  5
13C
330
1F
100
AcDbEntity
  8
100
  6
Continuous
 62
     3
100
AcDbLine
 10
-87.0
 20
450.0
 30
0.0
 11
-59.7055095543115
 21
444.541101910862
 31
0.0
  0
LINE
  5
13D
330
1F
100
AcDbEntity
  8
100
  6
Continuous
 62
     3
100
AcDbLine
 10
-87.0
 20
495.0
 30
0.0
 11
-105.0
 21
495.0
 31
0.0
  0
LINE
  5
13E
330
1F
100
AcDbEntity
  8
100
  6
Continuous
 62
     3
100
AcDbLine
 10
22.5965651990789
 20
418.861600998653
 30
0.0
 11
14.4337567297406
 21
433.0
 31
0.0
  0
LINE
  5
13F
330
1F
100
AcDbEntity
  8
100
  6
Continuous
 62
     3
100
AcDbLine
 10
14.4337567297406
 20
433.0
 30
0.0
 11
-1.89186020893589
 21
433.0
 31
0.0
  0
LINE
  5
140
330
1F
100
AcDbEntity
  8
100
  6
Continuous
 62
     3
100
AcDbLine
 10
-20.7047049901431
 20
422.138399001347
 30
0.0
 11
-28.8675134594813
 21
408.0
 31
0.0
  0
LINE
  5
141
330
1F
100
AcDbEntity
  8
100
  6
Continuous
 62
     3
100
AcDbLine
 10
-28.8675134594813
 20
408.0
 30
0.0
 11
-20.704704990143
 21
393.861600998653
 31
0.0
  0
LINE
  5
142
330
1F
100
AcDbEntity
  8
100
  6
Continuous
 62
     3
100
AcDbLine
 10
-1.89186020893576
 20
383.0
 30
0.0
 11
14.4337567297406
 21
383.0
 31
0.0
  0
LINE
  5
143
330
1F
100
AcDbEntity
  8
100
  6
Continuous
 62
     3
100
AcDbLine
 10
14.4337567297406
 20
383.0
 30
0.0
 11
22.5965651990788
 21
397.138399001347
 31
0.0
  0
LINE
  5
144
330
1F
100
AcDbEntity
  8
2
  6
CENTER
 62
     1
100
AcDbLine
 10
-117.0
 20
0.0
 30
0.0
 11
-36.0
 21
0.0
 31
0.0
  0
LINE
  5
145
330
1F
100
AcDbEntity
  8
2
  6
CENTER
 62
     1
100
AcDbLine
 10
36.0
 20
0.0
 30
0.0
 11
117.0
 21
0.0
 31
0.0
  0
LINE
  5
146
330
1F
100
AcDbEntity
  8
2
  6
CENTER
 62
     1
100
AcDbLine
 10
0.0
 20
-223.0
 30
0.0
 11
0.0
 21
-14.1020372384233
 31
0.0
  0
LINE
  5
147
330
1F
100
AcDbEntity
  8
2
  6
CENTER
 62
     1
100
AcDbLine
 10
0.0
 20
29.4006426248903
 30
0.0
 11
0.0
 21
250.5
 31
0.0
  0
LINE
  5
148
330
1F
100
AcDbEntity
  8
2
  6
PHANTOM
 62
     6
100
AcDbLine
 10
60.0000000000001
 20
201.0
 30
0.0
 11
61.5
 21
201.0
 31
0.0
  0
LINE
  5
149
330
1F
100
AcDbEntity
  8
2
  6
PHANTOM
 62
     6
100
AcDbLine
 10
-61.5
 20
184.0
 30
0.0
 11
-30.4003163308657
 21
184.0
 31
0.0
  0
LINE
  5
14A
330
1F
100
AcDbEntity
  8
2
  6
PHANTOM
 62
     6
100
AcDbLine
 10
30.4003163308657
 20
184.0
 30
0.0
 11
61.5
 21
184.0
 31
0.0
  0
LINE
  5
14B
330
1F
100
AcDbEntity
  8
2
  6
PHANTOM
 62
     6
100
AcDbLine
 10
60.5000000000001
 20
209.0
 30
0.0
 11
60.0000000000001
 21
209.0
 31
0.0
  0
LINE
  5
14C
330
1F
100
AcDbEntity
  8
2
  6
PHANTOM
 62
     6
100
AcDbLine
 10
50.0000000000001
 20
209.0
 30
0.0
 11
49.5000000000001
 21
209.0
 31
0.0
  0
LINE
  5
14D
330
1F
100
AcDbEntity
  8
100
  6
Continuous
 62
     3
100
AcDbLine
 10
-28.8675000000001
 20
128.0
 30
0.0
 11
28.8675000000001
 21
128.0
 31
0.0
  0
LINE
  5
14E
330
1F
100
AcDbEntity
  8
100
  6
Continuous
 62
     3
100
AcDbLine
 10
-39.3541611522847
 20
443.5
 30
0.0
 11
-32.5215660691025
 21
443.5
 31
0.0
  0
LINE
  5
14F
330
1F
100
AcDbEntity
  8
100
  6
Continuous
 62
     3
100
AcDbLine
 10
25.9951918631119
 20
443.5
 30
0.0
 11
39.3541611522847
 21
443.5
 31
0.0
  0
LINE
  5
150
330
1F
100
AcDbEntity
  8
100
  6
Continuous
 62
     3
100
AcDbLine
 10
-39.3541611522847
 20
372.5
 30
0.0
 11
-32.5215660691025
 21
372.5
 31
0.0
  0
LINE
  5
151
330
1F
100
AcDbEntity
  8
100
  6
Continuous
 62
     3
100
AcDbLine
 10
25.9951918631119
 20
372.5
 30
0.0
 11
39.3541611522847
 21
372.5
 31
0.0
  0
LINE
  5
152
330
1F
100
AcDbEntity
  8
2
  6
PHANTOM
 62
     6
100
AcDbLine
 10
-61.5
 20
201.0
 30
0.0
 11
-7.48331477354795
 21
201.0
 31
0.0
  0
LINE
  5
153
330
1F
100
AcDbEntity
  8
2
  6
PHANTOM
 62
     6
100
AcDbLine
 10
7.48331477354789
 20
201.0
 30
0.0
 11
50.0000000000001
 21
201.0
 31
0.0
  0
LINE
  5
154
330
1F
100
AcDbEntity
  8
100
  6
Continuous
 62
     3
100
AcDbLine
 10
-28.8675000000001
 20
108.0
 30
0.0
 11
28.8675000000001
 21
108.0
 31
0.0
  0
LINE
  5
155
330
1F
100
AcDbEntity
  8
100
  6
Continuous
 62
     3
100
AcDbLine
 10
-17.5
 20
199.753498853239
 30
0.0
 11
-17.5
 21
196.5
 31
0.0
  0
LINE
  5
156
330
1F
100
AcDbEntity
  8
100
  6
Continuous
 62
     3
100
AcDbLine
 10
-17.5
 20
199.753498853239
 30
0.0
 11
17.5
 21
199.753498853239
 31
0.0
  0
LINE
  5
157
330
1F
100
AcDbEntity
  8
2
  6
PHANTOM
 62
     6
100
AcDbLine
 10
-17.5
 20
169.253498853239
 30
0.0
 11
-17.5
 21
166.0
 31
0.0
  0
LINE
  5
158
330
1F
100
AcDbEntity
  8
2
  6
PHANTOM
 62
     6
100
AcDbLine
 10
-30.4003163308657
 20
184.0
 30
0.0
 11
-19.5437523009056
 21
173.378717831694
 31
0.0
  0
LINE
  5
159
330
1F
100
AcDbEntity
  8
100
  6
Continuous
 62
     3
100
AcDbLine
 10
395.0
 20
108.511151495126
 30
0.0
 11
445.0
 21
108.511151495127
 31
0.0
  0
LINE
  5
15A
330
1F
100
AcDbEntity
  8
100
  6
Continuous
 62
     3
100
AcDbLine
 10
395.0
 20
128.0
 30
0.0
 11
445.0
 21
128.0
 31
0.0
  0
LINE
  5
15B
330
1F
100
AcDbEntity
  8
100
  6
Continuous
 62
     3
100
AcDbLine
 10
402.5
 20
199.753498853239
 30
0.0
 11
402.5
 21
196.5
 31
0.0
  0
LINE
  5
15C
330
1F
100
AcDbEntity
  8
100
  6
Continuous
 62
     3
100
AcDbLine
 10
402.5
 20
199.753498853239
 30
0.0
 11
437.5
 21
199.753498853239
 31
0.0
  0
LINE
  5
15D
330
1F
100
AcDbEntity
  8
2
  6
CENTER
 62
     1
100
AcDbLine
 10
420.0
 20
-223.0
 30
0.0
 11
420.0
 21
286.754548313359
 31
0.0
  0
LINE
  5
15E
330
1F
100
AcDbEntity
  8
1
  6
Continuous
 62
     4
100
AcDbLine
 10
54.0716488724529
 20
-211.645111172024
 30
0.0
 11
50.0716488724529
 21
-211.645111172024
 31
0.0
  0
LINE
  5
15F
330
1F
100
AcDbEntity
  8
1
  6
Continuous
 62
     4
100
AcDbLine
 10
50.0716488724529
 20
-211.645111172024
 30
0.0
 11
50.0716488724529
 21
-206.645111172024
 31
0.0
  0
LINE
  5
160
330
1F
100
AcDbEntity
  8
1
  6
Continuous
 62
     4
100
AcDbLine
 10
50.0716488724529
 20
-206.645111172024
 30
0.0
 11
54.8216488724529
 21
-206.645111172024
 31
0.0
  0
LINE
  5
161
330
1F
100
AcDbEntity
  8
1
  6
Continuous
 62
     4
100
AcDbLine
 10
54.8216488724529
 20
-206.645111172024
 30
0.0
 11
55.8216488724529
 21
-206.895111172024
 31
0.0
  0
LINE
  5
162
330
1F
100
AcDbEntity
  8
1
  6
Continuous
 62
     4
100
AcDbLine
 10
55.8216488724529
 20
-206.895111172024
 30
0.0
 11
56.5716488724529
 21
-207.395111172024
 31
0.0
  0
LINE
  5
163
330
1F
100
AcDbEntity
  8
1
  6
Continuous
 62
     4
100
AcDbLine
 10
56.5716488724529
 20
-207.395111172024
 30
0.0
 11
56.8216488724529
 21
-207.895111172024
 31
0.0
  0
LINE
  5
164
330
1F
100
AcDbEntity
  8
1
  6
Continuous
 62
     4
100
AcDbLine
 10
56.8216488724529
 20
-207.895111172024
 30
0.0
 11
57.0716488724529
 21
-208.645111172024
 31
0.0
  0
LINE
  5
165
330
1F
100
AcDbEntity
  8
1
  6
Continuous
 62
     4
100
AcDbLine
 10
57.0716488724529
 20
-208.645111172024
 30
0.0
 11
57.0716488724529
 21
-209.645111172024
 31
0.0
  0
LINE
  5
166
330
1F
100
AcDbEntity
  8
1
  6
Continuous
 62
     4
100
AcDbLine
 10
57.0716488724529
 20
-209.645111172024
 30
0.0
 11
56.8216488724529
 21
-210.395111172024
 31
0.0
  0
LINE
  5
167
330
1F
100
AcDbEntity
  8
1
  6
Continuous
 62
     4
100
AcDbLine
 10
56.8216488724529
 20
-210.395111172024
 30
0.0
 11
56.5716488724529
 21
-210.895111172024
 31
0.0
  0
LINE
  5
168
330
1F
100
AcDbEntity
  8
1
  6
Continuous
 62
     4
100
AcDbLine
 10
56.5716488724529
 20
-210.895111172024
 30
0.0
 11
55.8216488724529
 21
-211.395111172024
 31
0.0
  0
LINE
  5
169
330
1F
100
AcDbEntity
  8
1
  6
Continuous
 62
     4
100
AcDbLine
 10
55.8216488724529
 20
-211.395111172024
 30
0.0
 11
54.8216488724529
 21
-211.645111172024
 31
0.0
  0
LINE
  5
16A
330
1F
100
AcDbEntity
  8
1
  6
Continuous
 62
     4
100
AcDbLine
 10
54.8216488724529
 20
-211.645111172024
 30
0.0
 11
54.0716488724529
 21
-211.645111172024
 31
0.0
  0
LINE
  5
16B
330
1F
100
AcDbEntity
  8
1
  6
Continuous
 62
     4
100
AcDbLine
 10
54.0716488724529
 20
-211.645111172024
 30
0.0
 11
57.0716488724529
 21
-216.645111172024
 31
0.0
  0
LINE
  5
16C
330
1F
100
AcDbEntity
  8
1
  6
Continuous
 62
     4
100
AcDbLine
 10
50.0716488724529
 20
-216.645111172024
 30
0.0
 11
50.0716488724529
 21
-211.645111172024
 31
0.0
  0
LINE
  5
16D
330
1F
100
AcDbEntity
  8
1
  6
Continuous
 62
     4
100
AcDbLine
 10
60.0716488724529
 20
-209.645111172024
 30
0.0
 11
63.0716488724529
 21
-206.645111172024
 31
0.0
  0
LINE
  5
16E
330
1F
100
AcDbEntity
  8
1
  6
Continuous
 62
     4
100
AcDbLine
 10
63.0716488724529
 20
-206.645111172024
 30
0.0
 11
63.0716488724529
 21
-216.645111172024
 31
0.0
  0
LINE
  5
16F
330
1F
100
AcDbEntity
  8
1
  6
Continuous
 62
     4
100
AcDbLine
 10
74.0716488724529
 20
-209.645111172024
 30
0.0
 11
77.0716488724529
 21
-206.645111172024
 31
0.0
  0
LINE
  5
170
330
1F
100
AcDbEntity
  8
1
  6
Continuous
 62
     4
100
AcDbLine
 10
77.0716488724529
 20
-206.645111172024
 30
0.0
 11
77.0716488724529
 21
-216.645111172024
 31
0.0
  0
LINE
  5
171
330
1F
100
AcDbEntity
  8
1
  6
Continuous
 62
     4
100
AcDbLine
 10
80.0716488724529
 20
-216.645111172024
 30
0.0
 11
84.0716488724529
 21
-206.645111172024
 31
0.0
  0
LINE
  5
172
330
1F
100
AcDbEntity
  8
1
  6
Continuous
 62
     4
100
AcDbLine
 10
87.0716488724529
 20
-208.145111172024
 30
0.0
 11
87.5716488724529
 21
-207.395111172024
 31
0.0
  0
LINE
  5
173
330
1F
100
AcDbEntity
  8
1
  6
Continuous
 62
     4
100
AcDbLine
 10
87.5716488724529
 20
-207.395111172024
 30
0.0
 11
88.3216488724529
 21
-206.895111172024
 31
0.0
  0
LINE
  5
174
330
1F
100
AcDbEntity
  8
1
  6
Continuous
 62
     4
100
AcDbLine
 10
88.3216488724529
 20
-206.895111172024
 30
0.0
 11
89.3216488724529
 21
-206.645111172024
 31
0.0
  0
LINE
  5
175
330
1F
100
AcDbEntity
  8
1
  6
Continuous
 62
     4
100
AcDbLine
 10
89.3216488724529
 20
-206.645111172024
 30
0.0
 11
90.8216488724529
 21
-206.645111172024
 31
0.0
  0
LINE
  5
176
330
1F
100
AcDbEntity
  8
1
  6
Continuous
 62
     4
100
AcDbLine
 10
90.8216488724529
 20
-206.645111172024
 30
0.0
 11
91.8216488724529
 21
-206.895111172024
 31
0.0
  0
LINE
  5
177
330
1F
100
AcDbEntity
  8
1
  6
Continuous
 62
     4
100
AcDbLine
 10
91.8216488724529
 20
-206.895111172024
 30
0.0
 11
92.5716488724529
 21
-207.395111172024
 31
0.0
  0
LINE
  5
178
330
1F
100
AcDbEntity
  8
1
  6
Continuous
 62
     4
100
AcDbLine
 10
92.5716488724529
 20
-207.395111172024
 30
0.0
 11
93.0716488724529
 21
-208.145111172024
 31
0.0
  0
LINE
  5
179
330
1F
100
AcDbEntity
  8
1
  6
Continuous
 62
     4
100
AcDbLine
 10
93.0716488724529
 20
-208.145111172024
 30
0.0
 11
93.0716488724529
 21
-209.145111172024
 31
0.0
  0
LINE
  5
17A
330
1F
100
AcDbEntity
  8
1
  6
Continuous
 62
     4
100
AcDbLine
 10
93.0716488724529
 20
-209.145111172024
 30
0.0
 11
92.5716488724529
 21
-210.145111172024
 31
0.0
  0
LINE
  5
17B
330
1F
100
AcDbEntity
  8
1
  6
Continuous
 62
     4
100
AcDbLine
 10
92.5716488724529
 20
-210.145111172024
 30
0.0
 11
87.0716488724529
 21
-216.645111172024
 31
0.0
  0
LINE
  5
17C
330
1F
100
AcDbEntity
  8
1
  6
Continuous
 62
     4
100
AcDbLine
 10
87.0716488724529
 20
-216.645111172024
 30
0.0
 11
93.0716488724529
 21
-216.645111172024
 31
0.0
  0
LINE
  5
17D
330
1F
100
AcDbEntity
  8
1
  6
Continuous
 62
     4
100
AcDbLine
 10
554.50583153782
 20
260.766616892471
 30
0.0
 11
558.50583153782
 21
260.766616892471
 31
0.0
  0
LINE
  5
17E
330
1F
100
AcDbEntity
  8
1
  6
Continuous
 62
     4
100
AcDbLine
 10
558.50583153782
 20
260.766616892471
 30
0.0
 11
559.00583153782
 21
260.766616892471
 31
0.0
  0
LINE
  5
17F
330
1F
100
AcDbEntity
  8
1
  6
Continuous
 62
     4
100
AcDbLine
 10
559.00583153782
 20
260.766616892471
 30
0.0
 11
560.00583153782
 21
260.266616892471
 31
0.0
  0
LINE
  5
180
330
1F
100
AcDbEntity
  8
1
  6
Continuous
 62
     4
100
AcDbLine
 10
560.00583153782
 20
260.266616892471
 30
0.0
 11
560.50583153782
 21
259.766616892471
 31
0.0
  0
LINE
  5
181
330
1F
100
AcDbEntity
  8
1
  6
Continuous
 62
     4
100
AcDbLine
 10
560.50583153782
 20
259.766616892471
 30
0.0
 11
561.00583153782
 21
258.516616892471
 31
0.0
  0
LINE
  5
182
330
1F
100
AcDbEntity
  8
1
  6
Continuous
 62
     4
100
AcDbLine
 10
561.00583153782
 20
258.516616892471
 30
0.0
 11
561.00583153782
 21
257.266616892471
 31
0.0
  0
LINE
  5
183
330
1F
100
AcDbEntity
  8
1
  6
Continuous
 62
     4
100
AcDbLine
 10
561.00583153782
 20
257.266616892471
 30
0.0
 11
560.50583153782
 21
256.266616892471
 31
0.0
  0
LINE
  5
184
330
1F
100
AcDbEntity
  8
1
  6
Continuous
 62
     4
100
AcDbLine
 10
560.50583153782
 20
256.266616892471
 30
0.0
 11
560.00583153782
 21
255.766616892471
 31
0.0
  0
LINE
  5
185
330
1F
100
AcDbEntity
  8
1
  6
Continuous
 62
     4
100
AcDbLine
 10
560.00583153782
 20
255.766616892471
 30
0.0
 11
559.00583153782
 21
255.266616892471
 31
0.0
  0
LINE
  5
186
330
1F
100
AcDbEntity
  8
1
  6
Continuous
 62
     4
100
AcDbLine
 10
559.00583153782
 20
255.266616892471
 30
0.0
 11
554.50583153782
 21
255.266616892471
 31
0.0
  0
LINE
  5
187
330
1F
100
AcDbEntity
  8
1
  6
Continuous
 62
     4
100
AcDbLine
 10
554.50583153782
 20
255.266616892471
 30
0.0
 11
554.50583153782
 21
260.766616892471
 31
0.0
  0
LINE
  5
188
330
1F
100
AcDbEntity
  8
1
  6
Continuous
 62
     4
100
AcDbLine
 10
554.50583153782
 20
265.266616892471
 30
0.0
 11
558.25583153782
 21
265.266616892471
 31
0.0
  0
LINE
  5
189
330
1F
100
AcDbEntity
  8
1
  6
Continuous
 62
     4
100
AcDbLine
 10
558.25583153782
 20
265.266616892471
 30
0.0
 11
559.50583153782
 21
265.016616892471
 31
0.0
  0
LINE
  5
18A
330
1F
100
AcDbEntity
  8
1
  6
Continuous
 62
     4
100
AcDbLine
 10
559.50583153782
 20
265.016616892471
 30
0.0
 11
560.25583153782
 21
264.266616892471
 31
0.0
  0
LINE
  5
18B
330
1F
100
AcDbEntity
  8
1
  6
Continuous
 62
     4
100
AcDbLine
 10
560.25583153782
 20
264.266616892471
 30
0.0
 11
560.50583153782
 21
263.266616892471
 31
0.0
  0
LINE
  5
18C
330
1F
100
AcDbEntity
  8
1
  6
Continuous
 62
     4
100
AcDbLine
 10
560.50583153782
 20
263.266616892471
 30
0.0
 11
560.50583153782
 21
262.516616892471
 31
0.0
  0
LINE
  5
18D
330
1F
100
AcDbEntity
  8
1
  6
Continuous
 62
     4
100
AcDbLine
 10
560.50583153782
 20
262.516616892471
 30
0.0
 11
560.00583153782
 21
261.516616892471
 31
0.0
  0
LINE
  5
18E
330
1F
100
AcDbEntity
  8
1
  6
Continuous
 62
     4
100
AcDbLine
 10
560.00583153782
 20
261.516616892471
 30
0.0
 11
559.25583153782
 21
261.016616892471
 31
0.0
  0
LINE
  5
18F
330
1F
100
AcDbEntity
  8
1
  6
Continuous
 62
     4
100
AcDbLine
 10
559.25583153782
 20
261.016616892471
 30
0.0
 11
558.50583153782
 21
260.766616892471
 31
0.0
  0
LINE
  5
190
330
1F
100
AcDbEntity
  8
1
  6
Continuous
 62
     4
100
AcDbLine
 10
554.50583153782
 20
260.766616892471
 30
0.0
 11
554.50583153782
 21
265.266616892471
 31
0.0
  0
LINE
  5
191
330
1F
100
AcDbEntity
  8
1
  6
Continuous
 62
     4
100
AcDbLine
 10
571.00583153782
 20
265.266616892471
 30
0.0
 11
571.00583153782
 21
260.766616892471
 31
0.0
  0
LINE
  5
192
330
1F
100
AcDbEntity
  8
1
  6
Continuous
 62
     4
100
AcDbLine
 10
564.00583153782
 20
260.766616892471
 30
0.0
 11
571.00583153782
 21
260.766616892471
 31
0.0
  0
LINE
  5
193
330
1F
100
AcDbEntity
  8
1
  6
Continuous
 62
     4
100
AcDbLine
 10
564.00583153782
 20
265.266616892471
 30
0.0
 11
564.00583153782
 21
260.766616892471
 31
0.0
  0
LINE
  5
194
330
1F
100
AcDbEntity
  8
1
  6
Continuous
 62
     4
100
AcDbLine
 10
564.00583153782
 20
260.266616892471
 30
0.0
 11
564.00583153782
 21
255.266616892471
 31
0.0
  0
LINE
  5
195
330
1F
100
AcDbEntity
  8
1
  6
Continuous
 62
     4
100
AcDbLine
 10
571.00583153782
 20
260.766616892471
 30
0.0
 11
571.00583153782
 21
255.266616892471
 31
0.0
  0
LINE
  5
196
330
1F
100
AcDbEntity
  8
1
  6
Continuous
 62
     4
100
AcDbLine
 10
564.00583153782
 20
260.766616892471
 30
0.0
 11
564.00583153782
 21
260.266616892471
 31
0.0
  0
LINE
  5
197
330
1F
100
AcDbEntity
  8
1
  6
Continuous
 62
     4
100
AcDbLine
 10
574.00583153782
 20
258.766616892471
 30
0.0
 11
579.00583153782
 21
258.766616892471
 31
0.0
  0
LINE
  5
198
330
1F
100
AcDbEntity
  8
1
  6
Continuous
 62
     4
100
AcDbLine
 10
582.00583153782
 20
258.766616892471
 30
0.0
 11
582.25583153782
 21
259.766616892471
 31
0.0
  0
LINE
  5
199
330
1F
100
AcDbEntity
  8
1
  6
Continuous
 62
     4
100
AcDbLine
 10
582.25583153782
 20
259.766616892471
 30
0.0
 11
582.75583153782
 21
260.516616892471
 31
0.0
  0
LINE
  5
19A
330
1F
100
AcDbEntity
  8
1
  6
Continuous
 62
     4
100
AcDbLine
 10
582.75583153782
 20
260.516616892471
 30
0.0
 11
583.50583153782
 21
261.016616892471
 31
0.0
  0
LINE
  5
19B
330
1F
100
AcDbEntity
  8
1
  6
Continuous
 62
     4
100
AcDbLine
 10
583.50583153782
 20
261.016616892471
 30
0.0
 11
584.25583153782
 21
261.266616892471
 31
0.0
  0
LINE
  5
19C
330
1F
100
AcDbEntity
  8
1
  6
Continuous
 62
     4
100
AcDbLine
 10
584.25583153782
 20
261.266616892471
 30
0.0
 11
585.75583153782
 21
261.266616892471
 31
0.0
  0
LINE
  5
19D
330
1F
100
AcDbEntity
  8
1
  6
Continuous
 62
     4
100
AcDbLine
 10
585.75583153782
 20
261.266616892471
 30
0.0
 11
586.50583153782
 21
261.016616892471
 31
0.0
  0
LINE
  5
19E
330
1F
100
AcDbEntity
  8
1
  6
Continuous
 62
     4
100
AcDbLine
 10
586.50583153782
 20
261.016616892471
 30
0.0
 11
587.25583153782
 21
260.516616892471
 31
0.0
  0
LINE
  5
19F
330
1F
100
AcDbEntity
  8
1
  6
Continuous
 62
     4
100
AcDbLine
 10
587.25583153782
 20
260.516616892471
 30
0.0
 11
587.75583153782
 21
259.766616892471
 31
0.0
  0
LINE
  5
1A0
330
1F
100
AcDbEntity
  8
1
  6
Continuous
 62
     4
100
AcDbLine
 10
587.75583153782
 20
259.766616892471
 30
0.0
 11
588.00583153782
 21
258.766616892471
 31
0.0
  0
LINE
  5
1A1
330
1F
100
AcDbEntity
  8
1
  6
Continuous
 62
     4
100
AcDbLine
 10
588.00583153782
 20
258.766616892471
 30
0.0
 11
588.00583153782
 21
257.766616892471
 31
0.0
  0
LINE
  5
1A2
330
1F
100
AcDbEntity
  8
1
  6
Continuous
 62
     4
100
AcDbLine
 10
588.00583153782
 20
257.766616892471
 30
0.0
 11
587.75583153782
 21
256.766616892471
 31
0.0
  0
LINE
  5
1A3
330
1F
100
AcDbEntity
  8
1
  6
Continuous
 62
     4
100
AcDbLine
 10
587.75583153782
 20
256.766616892471
 30
0.0
 11
587.25583153782
 21
256.016616892471
 31
0.0
  0
LINE
  5
1A4
330
1F
100
AcDbEntity
  8
1
  6
Continuous
 62
     4
100
AcDbLine
 10
587.25583153782
 20
256.016616892471
 30
0.0
 11
586.50583153782
 21
255.516616892471
 31
0.0
  0
LINE
  5
1A5
330
1F
100
AcDbEntity
  8
1
  6
Continuous
 62
     4
100
AcDbLine
 10
586.50583153782
 20
255.516616892471
 30
0.0
 11
585.75583153782
 21
255.266616892471
 31
0.0
  0
LINE
  5
1A6
330
1F
100
AcDbEntity
  8
1
  6
Continuous
 62
     4
100
AcDbLine
 10
585.75583153782
 20
255.266616892471
 30
0.0
 11
584.25583153782
 21
255.266616892471
 31
0.0
  0
LINE
  5
1A7
330
1F
100
AcDbEntity
  8
1
  6
Continuous
 62
     4
100
AcDbLine
 10
584.25583153782
 20
255.266616892471
 30
0.0
 11
583.50583153782
 21
255.516616892471
 31
0.0
  0
LINE
  5
1A8
330
1F
100
AcDbEntity
  8
1
  6
Continuous
 62
     4
100
AcDbLine
 10
583.50583153782
 20
255.516616892471
 30
0.0
 11
582.75583153782
 21
256.016616892471
 31
0.0
  0
LINE
  5
1A9
330
1F
100
AcDbEntity
  8
1
  6
Continuous
 62
     4
100
AcDbLine
 10
582.75583153782
 20
256.016616892471
 30
0.0
 11
582.25583153782
 21
256.766616892471
 31
0.0
  0
LINE
  5
1AA
330
1F
100
AcDbEntity
  8
1
  6
Continuous
 62
     4
100
AcDbLine
 10
582.25583153782
 20
256.766616892471
 30
0.0
 11
582.00583153782
 21
257.766616892471
 31
0.0
  0
LINE
  5
1AB
330
1F
100
AcDbEntity
  8
1
  6
Continuous
 62
     4
100
AcDbLine
 10
582.00583153782
 20
257.766616892471
 30
0.0
 11
582.00583153782
 21
258.766616892471
 31
0.0
  0
LINE
  5
1AC
330
1F
100
AcDbEntity
  8
1
  6
Continuous
 62
     4
100
AcDbLine
 10
582.00583153782
 20
258.766616892471
 30
0.0
 11
582.25583153782
 21
260.766616892471
 31
0.0
  0
LINE
  5
1AD
330
1F
100
AcDbEntity
  8
1
  6
Continuous
 62
     4
100
AcDbLine
 10
582.25583153782
 20
260.766616892471
 30
0.0
 11
582.75583153782
 21
261.766616892471
 31
0.0
  0
LINE
  5
1AE
330
1F
100
AcDbEntity
  8
1
  6
Continuous
 62
     4
100
AcDbLine
 10
582.75583153782
 20
261.766616892471
 30
0.0
 11
583.75583153782
 21
263.016616892471
 31
0.0
  0
LINE
  5
1AF
330
1F
100
AcDbEntity
  8
1
  6
Continuous
 62
     4
100
AcDbLine
 10
583.75583153782
 20
263.016616892471
 30
0.0
 11
586.50583153782
 21
265.266616892471
 31
0.0
  0
LINE
  5
1B0
330
1F
100
AcDbEntity
  8
1
  6
Continuous
 62
     4
100
AcDbLine
 10
596.50583153782
 20
265.266616892471
 30
0.0
 11
591.00583153782
 21
265.266616892471
 31
0.0
  0
LINE
  5
1B1
330
1F
100
AcDbEntity
  8
1
  6
Continuous
 62
     4
100
AcDbLine
 10
591.00583153782
 20
265.266616892471
 30
0.0
 11
591.00583153782
 21
261.266616892471
 31
0.0
  0
LINE
  5
1B2
330
1F
100
AcDbEntity
  8
1
  6
Continuous
 62
     4
100
AcDbLine
 10
591.00583153782
 20
261.266616892471
 30
0.0
 11
594.75583153782
 21
261.266616892471
 31
0.0
  0
LINE
  5
1B3
330
1F
100
AcDbEntity
  8
1
  6
Continuous
 62
     4
100
AcDbLine
 10
594.75583153782
 20
261.266616892471
 30
0.0
 11
596.00583153782
 21
261.016616892471
 31
0.0
  0
LINE
  5
1B4
330
1F
100
AcDbEntity
  8
1
  6
Continuous
 62
     4
100
AcDbLine
 10
596.00583153782
 20
261.016616892471
 30
0.0
 11
596.75583153782
 21
260.266616892471
 31
0.0
  0
LINE
  5
1B5
330
1F
100
AcDbEntity
  8
1
  6
Continuous
 62
     4
100
AcDbLine
 10
596.75583153782
 20
260.266616892471
 30
0.0
 11
597.00583153782
 21
259.266616892471
 31
0.0
  0
LINE
  5
1B6
330
1F
100
AcDbEntity
  8
1
  6
Continuous
 62
     4
100
AcDbLine
 10
597.00583153782
 20
259.266616892471
 30
0.0
 11
597.00583153782
 21
257.766616892471
 31
0.0
  0
LINE
  5
1B7
330
1F
100
AcDbEntity
  8
1
  6
Continuous
 62
     4
100
AcDbLine
 10
597.00583153782
 20
257.766616892471
 30
0.0
 11
596.75583153782
 21
256.766616892471
 31
0.0
  0
LINE
  5
1B8
330
1F
100
AcDbEntity
  8
1
  6
Continuous
 62
     4
100
AcDbLine
 10
596.75583153782
 20
256.766616892471
 30
0.0
 11
596.25583153782
 21
256.016616892471
 31
0.0
  0
LINE
  5
1B9
330
1F
100
AcDbEntity
  8
1
  6
Continuous
 62
     4
100
AcDbLine
 10
596.25583153782
 20
256.016616892471
 30
0.0
 11
595.50583153782
 21
255.516616892471
 31
0.0
  0
LINE
  5
1BA
330
1F
100
AcDbEntity
  8
1
  6
Continuous
 62
     4
100
AcDbLine
 10
595.50583153782
 20
255.516616892471
 30
0.0
 11
594.75583153782
 21
255.266616892471
 31
0.0
  0
LINE
  5
1BB
330
1F
100
AcDbEntity
  8
1
  6
Continuous
 62
     4
100
AcDbLine
 10
594.75583153782
 20
255.266616892471
 30
0.0
 11
591.00583153782
 21
255.266616892471
 31
0.0
  0
LINE
  5
1BC
330
1F
100
AcDbEntity
  8
1
  6
Continuous
 62
     4
100
AcDbLine
 10
600.00583153782
 20
258.766616892471
 30
0.0
 11
605.00583153782
 21
258.766616892471
 31
0.0
  0
LINE
  5
1BD
330
1F
100
AcDbEntity
  8
1
  6
Continuous
 62
     4
100
AcDbLine
 10
614.00583153782
 20
255.266616892471
 30
0.0
 11
610.75583153782
 21
255.266616892471
 31
0.0
  0
LINE
  5
1BE
330
1F
100
AcDbEntity
  8
1
  6
Continuous
 62
     4
100
AcDbLine
 10
610.75583153782
 20
255.266616892471
 30
0.0
 11
609.75583153782
 21
255.516616892471
 31
0.0
  0
LINE
  5
1BF
330
1F
100
AcDbEntity
  8
1
  6
Continuous
 62
     4
100
AcDbLine
 10
609.75583153782
 20
255.516616892471
 30
0.0
 11
609.00583153782
 21
256.016616892471
 31
0.0
  0
LINE
  5
1C0
330
1F
100
AcDbEntity
  8
1
  6
Continuous
 62
     4
100
AcDbLine
 10
609.00583153782
 20
256.016616892471
 30
0.0
 11
608.50583153782
 21
256.516616892471
 31
0.0
  0
LINE
  5
1C1
330
1F
100
AcDbEntity
  8
1
  6
Continuous
 62
     4
100
AcDbLine
 10
608.50583153782
 20
256.516616892471
 30
0.0
 11
608.25583153782
 21
257.266616892471
 31
0.0
  0
LINE
  5
1C2
330
1F
100
AcDbEntity
  8
1
  6
Continuous
 62
     4
100
AcDbLine
 10
608.25583153782
 20
257.266616892471
 30
0.0
 11
608.00583153782
 21
258.266616892471
 31
0.0
  0
LINE
  5
1C3
330
1F
100
AcDbEntity
  8
1
  6
Continuous
 62
     4
100
AcDbLine
 10
608.00583153782
 20
258.266616892471
 30
0.0
 11
608.00583153782
 21
262.266616892471
 31
0.0
  0
LINE
  5
1C4
330
1F
100
AcDbEntity
  8
1
  6
Continuous
 62
     4
100
AcDbLine
 10
608.00583153782
 20
262.266616892471
 30
0.0
 11
608.25583153782
 21
263.266616892471
 31
0.0
  0
LINE
  5
1C5
330
1F
100
AcDbEntity
  8
1
  6
Continuous
 62
     4
100
AcDbLine
 10
608.25583153782
 20
263.266616892471
 30
0.0
 11
608.50583153782
 21
264.016616892471
 31
0.0
  0
LINE
  5
1C6
330
1F
100
AcDbEntity
  8
1
  6
Continuous
 62
     4
100
AcDbLine
 10
608.50583153782
 20
264.016616892471
 30
0.0
 11
609.00583153782
 21
264.516616892471
 31
0.0
  0
LINE
  5
1C7
330
1F
100
AcDbEntity
  8
1
  6
Continuous
 62
     4
100
AcDbLine
 10
609.00583153782
 20
264.516616892471
 30
0.0
 11
609.75583153782
 21
265.016616892471
 31
0.0
  0
LINE
  5
1C8
330
1F
100
AcDbEntity
  8
1
  6
Continuous
 62
     4
100
AcDbLine
 10
609.75583153782
 20
265.016616892471
 30
0.0
 11
610.75583153782
 21
265.266616892471
 31
0.0
  0
LINE
  5
1C9
330
1F
100
AcDbEntity
  8
1
  6
Continuous
 62
     4
100
AcDbLine
 10
610.75583153782
 20
265.266616892471
 30
0.0
 11
614.00583153782
 21
265.266616892471
 31
0.0
  0
LINE
  5
1CA
330
1F
100
AcDbEntity
  8
1
  6
Continuous
 62
     4
100
AcDbLine
 10
-23.9730453972258
 20
-227.562883564523
 30
0.0
 11
-23.4730453972258
 21
-228.562883564523
 31
0.0
  0
LINE
  5
1CB
330
1F
100
AcDbEntity
  8
1
  6
Continuous
 62
     4
100
AcDbLine
 10
-24.8480453972258
 20
-230.437883564523
 30
0.0
 11
-23.9730453972258
 21
-231.312883564523
 31
0.0
  0
LINE
  5
1CC
330
1F
100
AcDbEntity
  8
1
  6
Continuous
 62
     4
100
AcDbLine
 10
-24.5980453972258
 20
-236.937883564523
 30
0.0
 11
-23.4730453972258
 21
-232.937883564523
 31
0.0
  0
LINE
  5
1CD
330
1F
100
AcDbEntity
  8
1
  6
Continuous
 62
     4
100
AcDbLine
 10
-22.5980453972258
 20
-228.812883564523
 30
0.0
 11
-19.8480453972258
 21
-228.812883564523
 31
0.0
  0
LINE
  5
1CE
330
1F
100
AcDbEntity
  8
1
  6
Continuous
 62
     4
100
AcDbLine
 10
-19.5980453972258
 20
-227.312883564523
 30
0.0
 11
-19.5980453972258
 21
-228.812883564523
 31
0.0
  0
LINE
  5
1CF
330
1F
100
AcDbEntity
  8
1
  6
Continuous
 62
     4
100
AcDbLine
 10
-19.8480453972258
 20
-228.812883564523
 30
0.0
 11
-20.9730453972258
 21
-231.312883564523
 31
0.0
  0
LINE
  5
1D0
330
1F
100
AcDbEntity
  8
1
  6
Continuous
 62
     4
100
AcDbLine
 10
-22.0980453972258
 20
-231.312883564523
 30
0.0
 11
-17.8480453972258
 21
-231.062883564523
 31
0.0
  0
LINE
  5
1D1
330
1F
100
AcDbEntity
  8
1
  6
Continuous
 62
     4
100
AcDbLine
 10
-18.4730453972258
 20
-229.812883564523
 30
0.0
 11
-17.3480453972258
 21
-231.937883564523
 31
0.0
  0
LINE
  5
1D2
330
1F
100
AcDbEntity
  8
1
  6
Continuous
 62
     4
100
AcDbLine
 10
-21.2230453972258
 20
-232.937883564523
 30
0.0
 11
-21.4730453972258
 21
-235.062883564523
 31
0.0
  0
LINE
  5
1D3
330
1F
100
AcDbEntity
  8
1
  6
Continuous
 62
     4
100
AcDbLine
 10
-21.4730453972258
 20
-235.062883564523
 30
0.0
 11
-21.8480453972258
 21
-236.062883564523
 31
0.0
  0
LINE
  5
1D4
330
1F
100
AcDbEntity
  8
1
  6
Continuous
 62
     4
100
AcDbLine
 10
-21.8480453972258
 20
-236.062883564523
 30
0.0
 11
-22.3480453972258
 21
-236.687883564523
 31
0.0
  0
LINE
  5
1D5
330
1F
100
AcDbEntity
  8
1
  6
Continuous
 62
     4
100
AcDbLine
 10
-22.3480453972258
 20
-236.687883564523
 30
0.0
 11
-23.2230453972258
 21
-237.312883564523
 31
0.0
  0
LINE
  5
1D6
330
1F
100
AcDbEntity
  8
1
  6
Continuous
 62
     4
100
AcDbLine
 10
-19.8480453972258
 20
-236.937883564523
 30
0.0
 11
-19.8480453972258
 21
-232.937883564523
 31
0.0
  0
LINE
  5
1D7
330
1F
100
AcDbEntity
  8
1
  6
Continuous
 62
     4
100
AcDbLine
 10
-18.2230453972258
 20
-232.937883564523
 30
0.0
 11
-18.2230453972258
 21
-236.062883564523
 31
0.0
  0
LINE
  5
1D8
330
1F
100
AcDbEntity
  8
1
  6
Continuous
 62
     4
100
AcDbLine
 10
-18.2230453972258
 20
-236.062883564523
 30
0.0
 11
-17.5980453972258
 21
-236.937883564523
 31
0.0
  0
LINE
  5
1D9
330
1F
100
AcDbEntity
  8
1
  6
Continuous
 62
     4
100
AcDbLine
 10
-17.5980453972258
 20
-236.937883564523
 30
0.0
 11
-16.4730453972258
 21
-236.937883564523
 31
0.0
  0
LINE
  5
1DA
330
1F
100
AcDbEntity
  8
1
  6
Continuous
 62
     4
100
AcDbLine
 10
-16.4730453972258
 20
-236.937883564523
 30
0.0
 11
-15.9730453972258
 21
-236.312883564523
 31
0.0
  0
LINE
  5
1DB
330
1F
100
AcDbEntity
  8
1
  6
Continuous
 62
     4
100
AcDbLine
 10
-15.9730453972258
 20
-236.312883564523
 30
0.0
 11
-15.9730453972258
 21
-235.687883564523
 31
0.0
  0
LINE
  5
1DC
330
1F
100
AcDbEntity
  8
1
  6
Continuous
 62
     4
100
AcDbLine
 10
-19.8480453972258
 20
-228.812883564523
 30
0.0
 11
-16.4730453972258
 21
-228.812883564523
 31
0.0
  0
LINE
  5
1DD
330
1F
100
AcDbEntity
  8
1
  6
Continuous
 62
     4
100
AcDbLine
 10
-14.3480453972258
 20
-235.687883564523
 30
0.0
 11
-13.2230453972258
 21
-234.437883564523
 31
0.0
  0
LINE
  5
1DE
330
1F
100
AcDbEntity
  8
1
  6
Continuous
 62
     4
100
AcDbLine
 10
-13.2230453972258
 20
-234.437883564523
 30
0.0
 11
-12.0980453972258
 21
-232.562883564523
 31
0.0
  0
LINE
  5
1DF
330
1F
100
AcDbEntity
  8
1
  6
Continuous
 62
     4
100
AcDbLine
 10
-12.0980453972258
 20
-232.562883564523
 30
0.0
 11
-11.4730453972258
 21
-230.687883564523
 31
0.0
  0
LINE
  5
1E0
330
1F
100
AcDbEntity
  8
1
  6
Continuous
 62
     4
100
AcDbLine
 10
-11.4730453972258
 20
-230.687883564523
 30
0.0
 11
-14.3480453972258
 21
-230.687883564523
 31
0.0
  0
LINE
  5
1E1
330
1F
100
AcDbEntity
  8
1
  6
Continuous
 62
     4
100
AcDbLine
 10
-10.0980453972258
 20
-227.562883564523
 30
0.0
 11
-10.0980453972258
 21
-237.312883564523
 31
0.0
  0
LINE
  5
1E2
330
1F
100
AcDbEntity
  8
1
  6
Continuous
 62
     4
100
AcDbLine
 10
-10.0980453972258
 20
-237.312883564523
 30
0.0
 11
-10.9730453972258
 21
-236.937883564523
 31
0.0
  0
LINE
  5
1E3
330
1F
100
AcDbEntity
  8
1
  6
Continuous
 62
     4
100
AcDbLine
 10
-6.8480453972258
 20
-229.812883564523
 30
0.0
 11
-8.7230453972258
 21
-231.312883564523
 31
0.0
  0
LINE
  5
1E4
330
1F
100
AcDbEntity
  8
1
  6
Continuous
 62
     4
100
AcDbLine
 10
-9.3480453972258
 20
-230.062883564523
 30
0.0
 11
-8.4730453972258
 21
-232.312883564523
 31
0.0
  0
LINE
  5
1E5
330
1F
100
AcDbEntity
  8
1
  6
Continuous
 62
     4
100
AcDbLine
 10
-8.4730453972258
 20
-232.312883564523
 30
0.0
 11
-7.3480453972258
 21
-234.187883564523
 31
0.0
  0
LINE
  5
1E6
330
1F
100
AcDbEntity
  8
1
  6
Continuous
 62
     4
100
AcDbLine
 10
-7.3480453972258
 20
-234.187883564523
 30
0.0
 11
-5.9730453972258
 21
-235.687883564523
 31
0.0
  0
LINE
  5
1E7
330
1F
100
AcDbEntity
  8
1
  6
Continuous
 62
     4
100
AcDbLine
 10
-3.9730453972258
 20
-236.937883564523
 30
0.0
 11
-2.8480453972258
 21
-235.687883564523
 31
0.0
  0
LINE
  5
1E8
330
1F
100
AcDbEntity
  8
1
  6
Continuous
 62
     4
100
AcDbLine
 10
-2.8480453972258
 20
-235.687883564523
 30
0.0
 11
-2.0980453972258
 21
-234.187883564523
 31
0.0
  0
LINE
  5
1E9
330
1F
100
AcDbEntity
  8
1
  6
Continuous
 62
     4
100
AcDbLine
 10
-2.0980453972258
 20
-234.187883564523
 30
0.0
 11
-1.4730453972258
 21
-232.562883564523
 31
0.0
  0
LINE
  5
1EA
330
1F
100
AcDbEntity
  8
1
  6
Continuous
 62
     4
100
AcDbLine
 10
-1.4730453972258
 20
-232.562883564523
 30
0.0
 11
-0.9730453972258
 21
-230.062883564523
 31
0.0
  0
LINE
  5
1EB
330
1F
100
AcDbEntity
  8
1
  6
Continuous
 62
     4
100
AcDbLine
 10
-0.9730453972258
 20
-230.062883564523
 30
0.0
 11
-0.7230453972258
 21
-227.562883564523
 31
0.0
  0
LINE
  5
1EC
330
1F
100
AcDbEntity
  8
1
  6
Continuous
 62
     4
100
AcDbLine
 10
-4.5980453972258
 20
-229.187883564523
 30
0.0
 11
3.7769546027742
 21
-229.187883564523
 31
0.0
  0
LINE
  5
1ED
330
1F
100
AcDbEntity
  8
1
  6
Continuous
 62
     4
100
AcDbLine
 10
-1.2230453972258
 20
-231.687883564523
 30
0.0
 11
2.4019546027742
 21
-231.687883564523
 31
0.0
  0
LINE
  5
1EE
330
1F
100
AcDbEntity
  8
1
  6
Continuous
 62
     4
100
AcDbLine
 10
2.4019546027742
 20
-231.687883564523
 30
0.0
 11
2.4019546027742
 21
-232.562883564523
 31
0.0
  0
LINE
  5
1EF
330
1F
100
AcDbEntity
  8
1
  6
Continuous
 62
     4
100
AcDbLine
 10
2.4019546027742
 20
-232.562883564523
 30
0.0
 11
1.7769546027742
 21
-234.812883564523
 31
0.0
  0
LINE
  5
1F0
330
1F
100
AcDbEntity
  8
1
  6
Continuous
 62
     4
100
AcDbLine
 10
1.7769546027742
 20
-234.812883564523
 30
0.0
 11
1.2769546027742
 21
-236.312883564523
 31
0.0
  0
LINE
  5
1F1
330
1F
100
AcDbEntity
  8
1
  6
Continuous
 62
     4
100
AcDbLine
 10
1.2769546027742
 20
-236.312883564523
 30
0.0
 11
0.6519546027742
 21
-237.312883564523
 31
0.0
  0
LINE
  5
1F2
330
1F
100
AcDbEntity
  8
1
  6
Continuous
 62
     4
100
AcDbLine
 10
0.6519546027742
 20
-237.312883564523
 30
0.0
 11
-0.3480453972258
 21
-236.687883564523
 31
0.0
  0
LINE
  5
1F3
330
1F
100
AcDbEntity
  8
1
  6
Continuous
 62
     4
100
AcDbLine
 10
6.0269546027742
 20
-236.937883564523
 30
0.0
 11
6.0269546027742
 21
-229.437883564523
 31
0.0
  0
LINE
  5
1F4
330
1F
100
AcDbEntity
  8
1
  6
Continuous
 62
     4
100
AcDbLine
 10
6.0269546027742
 20
-229.437883564523
 30
0.0
 11
7.4019546027742
 21
-229.437883564523
 31
0.0
  0
LINE
  5
1F5
330
1F
100
AcDbEntity
  8
1
  6
Continuous
 62
     4
100
AcDbLine
 10
13.1519546027742
 20
-229.437883564523
 30
0.0
 11
13.1519546027742
 21
-236.937883564523
 31
0.0
  0
LINE
  5
1F6
330
1F
100
AcDbEntity
  8
1
  6
Continuous
 62
     4
100
AcDbLine
 10
13.1519546027742
 20
-236.937883564523
 30
0.0
 11
11.7769546027742
 21
-236.937883564523
 31
0.0
  0
LINE
  5
1F7
330
1F
100
AcDbEntity
  8
1
  6
Continuous
 62
     4
100
AcDbLine
 10
8.5269546027742
 20
-234.187883564523
 30
0.0
 11
8.5269546027742
 21
-231.687883564523
 31
0.0
  0
LINE
  5
1F8
330
1F
100
AcDbEntity
  8
1
  6
Continuous
 62
     4
100
AcDbLine
 10
8.5269546027742
 20
-231.687883564523
 30
0.0
 11
10.6519546027742
 21
-231.687883564523
 31
0.0
  0
LINE
  5
1F9
330
1F
100
AcDbEntity
  8
1
  6
Continuous
 62
     4
100
AcDbLine
 10
10.6519546027742
 20
-231.687883564523
 30
0.0
 11
10.6519546027742
 21
-234.187883564523
 31
0.0
  0
LINE
  5
1FA
330
1F
100
AcDbEntity
  8
1
  6
Continuous
 62
     4
100
AcDbLine
 10
10.6519546027742
 20
-234.187883564523
 30
0.0
 11
8.5269546027742
 21
-234.187883564523
 31
0.0
  0
LINE
  5
1FB
330
1F
100
AcDbEntity
  8
1
  6
Continuous
 62
     4
100
AcDbLine
 10
7.4019546027742
 20
-229.437883564523
 30
0.0
 11
8.7769546027742
 21
-227.562883564523
 31
0.0
  0
LINE
  5
1FC
330
1F
100
AcDbEntity
  8
1
  6
Continuous
 62
     4
100
AcDbLine
 10
7.4019546027742
 20
-229.437883564523
 30
0.0
 11
13.1519546027742
 21
-229.437883564523
 31
0.0
  0
LINE
  5
1FD
330
1F
100
AcDbEntity
  8
1
  6
Continuous
 62
     4
100
AcDbLine
 10
15.6519546027742
 20
-232.312883564523
 30
0.0
 11
23.1519546027742
 21
-232.312883564523
 31
0.0
  0
LINE
  5
1FE
330
1F
100
AcDbEntity
  8
1
  6
Continuous
 62
     4
100
AcDbLine
 10
22.1519546027742
 20
-231.062883564523
 30
0.0
 11
23.1519546027742
 21
-232.312883564523
 31
0.0
  0
LINE
  5
1FF
330
1F
100
AcDbEntity
  8
1
  6
Continuous
 62
     4
100
AcDbLine
 10
23.1519546027742
 20
-232.312883564523
 30
0.0
 11
22.1519546027742
 21
-233.562883564523
 31
0.0
  0
LINE
  5
200
330
1F
100
AcDbEntity
  8
1
  6
Continuous
 62
     4
100
AcDbLine
 10
149.788399244265
 20
-4.80667217907
 30
0.0
 11
152.788399244265
 21
-1.80667217907
 31
0.0
  0
LINE
  5
201
330
1F
100
AcDbEntity
  8
1
  6
Continuous
 62
     4
100
AcDbLine
 10
152.788399244265
 20
-1.80667217907
 30
0.0
 11
152.788399244265
 21
-11.80667217907
 31
0.0
  0
LINE
  5
202
330
1F
100
AcDbEntity
  8
1
  6
Continuous
 62
     4
100
AcDbLine
 10
161.788399244265
 20
-8.05667217907
 30
0.0
 11
161.538399244265
 21
-9.55667217907
 31
0.0
  0
LINE
  5
203
330
1F
100
AcDbEntity
  8
1
  6
Continuous
 62
     4
100
AcDbLine
 10
161.538399244265
 20
-9.55667217907
 30
0.0
 11
161.038399244265
 21
-10.55667217907
 31
0.0
  0
LINE
  5
204
330
1F
100
AcDbEntity
  8
1
  6
Continuous
 62
     4
100
AcDbLine
 10
161.038399244265
 20
-10.55667217907
 30
0.0
 11
160.538399244265
 21
-11.05667217907
 31
0.0
  0
LINE
  5
205
330
1F
100
AcDbEntity
  8
1
  6
Continuous
 62
     4
100
AcDbLine
 10
160.538399244265
 20
-11.05667217907
 30
0.0
 11
159.788399244265
 21
-11.55667217907
 31
0.0
  0
LINE
  5
206
330
1F
100
AcDbEntity
  8
1
  6
Continuous
 62
     4
100
AcDbLine
 10
159.788399244265
 20
-11.55667217907
 30
0.0
 11
159.038399244265
 21
-11.80667217907
 31
0.0
  0
LINE
  5
207
330
1F
100
AcDbEntity
  8
1
  6
Continuous
 62
     4
100
AcDbLine
 10
159.038399244265
 20
-11.80667217907
 30
0.0
 11
158.538399244265
 21
-11.80667217907
 31
0.0
  0
LINE
  5
208
330
1F
100
AcDbEntity
  8
1
  6
Continuous
 62
     4
100
AcDbLine
 10
158.538399244265
 20
-11.80667217907
 30
0.0
 11
157.788399244265
 21
-11.55667217907
 31
0.0
  0
LINE
  5
209
330
1F
100
AcDbEntity
  8
1
  6
Continuous
 62
     4
100
AcDbLine
 10
157.788399244265
 20
-11.55667217907
 30
0.0
 11
157.038399244265
 21
-11.05667217907
 31
0.0
  0
LINE
  5
20A
330
1F
100
AcDbEntity
  8
1
  6
Continuous
 62
     4
100
AcDbLine
 10
157.038399244265
 20
-11.05667217907
 30
0.0
 11
156.538399244265
 21
-10.55667217907
 31
0.0
  0
LINE
  5
20B
330
1F
100
AcDbEntity
  8
1
  6
Continuous
 62
     4
100
AcDbLine
 10
156.538399244265
 20
-10.55667217907
 30
0.0
 11
156.038399244265
 21
-9.55667217907
 31
0.0
  0
LINE
  5
20C
330
1F
100
AcDbEntity
  8
1
  6
Continuous
 62
     4
100
AcDbLine
 10
156.038399244265
 20
-9.55667217907
 30
0.0
 11
155.788399244265
 21
-8.05667217907
 31
0.0
  0
LINE
  5
20D
330
1F
100
AcDbEntity
  8
1
  6
Continuous
 62
     4
100
AcDbLine
 10
155.788399244265
 20
-8.05667217907
 30
0.0
 11
155.788399244265
 21
-5.55667217907
 31
0.0
  0
LINE
  5
20E
330
1F
100
AcDbEntity
  8
1
  6
Continuous
 62
     4
100
AcDbLine
 10
155.788399244265
 20
-5.55667217907
 30
0.0
 11
156.038399244265
 21
-4.05667217907
 31
0.0
  0
LINE
  5
20F
330
1F
100
AcDbEntity
  8
1
  6
Continuous
 62
     4
100
AcDbLine
 10
156.038399244265
 20
-4.05667217907
 30
0.0
 11
156.538399244265
 21
-3.05667217907
 31
0.0
  0
LINE
  5
210
330
1F
100
AcDbEntity
  8
1
  6
Continuous
 62
     4
100
AcDbLine
 10
156.538399244265
 20
-3.05667217907
 30
0.0
 11
157.038399244265
 21
-2.55667217907
 31
0.0
  0
LINE
  5
211
330
1F
100
AcDbEntity
  8
1
  6
Continuous
 62
     4
100
AcDbLine
 10
157.038399244265
 20
-2.55667217907
 30
0.0
 11
157.788399244265
 21
-2.05667217907
 31
0.0
  0
LINE
  5
212
330
1F
100
AcDbEntity
  8
1
  6
Continuous
 62
     4
100
AcDbLine
 10
157.788399244265
 20
-2.05667217907
 30
0.0
 11
158.538399244265
 21
-1.80667217907
 31
0.0
  0
LINE
  5
213
330
1F
100
AcDbEntity
  8
1
  6
Continuous
 62
     4
100
AcDbLine
 10
158.538399244265
 20
-1.80667217907
 30
0.0
 11
159.038399244265
 21
-1.80667217907
 31
0.0
  0
LINE
  5
214
330
1F
100
AcDbEntity
  8
1
  6
Continuous
 62
     4
100
AcDbLine
 10
159.038399244265
 20
-1.80667217907
 30
0.0
 11
159.788399244265
 21
-2.05667217907
 31
0.0
  0
LINE
  5
215
330
1F
100
AcDbEntity
  8
1
  6
Continuous
 62
     4
100
AcDbLine
 10
159.788399244265
 20
-2.05667217907
 30
0.0
 11
160.538399244265
 21
-2.55667217907
 31
0.0
  0
LINE
  5
216
330
1F
100
AcDbEntity
  8
1
  6
Continuous
 62
     4
100
AcDbLine
 10
160.538399244265
 20
-2.55667217907
 30
0.0
 11
161.038399244265
 21
-3.05667217907
 31
0.0
  0
LINE
  5
217
330
1F
100
AcDbEntity
  8
1
  6
Continuous
 62
     4
100
AcDbLine
 10
161.038399244265
 20
-3.05667217907
 30
0.0
 11
161.538399244265
 21
-4.05667217907
 31
0.0
  0
LINE
  5
218
330
1F
100
AcDbEntity
  8
1
  6
Continuous
 62
     4
100
AcDbLine
 10
161.538399244265
 20
-4.05667217907
 30
0.0
 11
161.788399244265
 21
-5.55667217907
 31
0.0
  0
LINE
  5
219
330
1F
100
AcDbEntity
  8
1
  6
Continuous
 62
     4
100
AcDbLine
 10
161.788399244265
 20
-5.55667217907
 30
0.0
 11
161.788399244265
 21
-8.05667217907
 31
0.0
  0
LINE
  5
21A
330
1F
100
AcDbEntity
  8
1
  6
Continuous
 62
     4
100
AcDbLine
 10
166.788399244265
 20
-6.80667217907
 30
0.0
 11
164.788399244265
 21
-8.80667217907
 31
0.0
  0
LINE
  5
21B
330
1F
100
AcDbEntity
  8
1
  6
Continuous
 62
     4
100
AcDbLine
 10
171.788399244265
 20
-1.80667217907
 30
0.0
 11
166.788399244265
 21
-6.80667217907
 31
0.0
  0
LINE
  5
21C
330
1F
100
AcDbEntity
  8
1
  6
Continuous
 62
     4
100
AcDbLine
 10
166.788399244265
 20
-6.80667217907
 30
0.0
 11
171.788399244265
 21
-11.80667217907
 31
0.0
  0
LINE
  5
21D
330
1F
100
AcDbEntity
  8
1
  6
Continuous
 62
     4
100
AcDbLine
 10
164.788399244265
 20
-11.80667217907
 30
0.0
 11
164.788399244265
 21
-8.80667217907
 31
0.0
  0
LINE
  5
21E
330
1F
100
AcDbEntity
  8
1
  6
Continuous
 62
     4
100
AcDbLine
 10
164.788399244265
 20
-8.80667217907
 30
0.0
 11
164.788399244265
 21
-1.80667217907
 31
0.0
  0
LINE
  5
21F
330
1F
100
AcDbEntity
  8
1
  6
Continuous
 62
     4
100
AcDbLine
 10
175.038399244265
 20
-6.18167217907
 30
0.0
 11
183.413399244265
 21
-6.18167217907
 31
0.0
  0
LINE
  5
220
330
1F
100
AcDbEntity
  8
1
  6
Continuous
 62
     4
100
AcDbLine
 10
186.163399244265
 20
-11.80667217907
 30
0.0
 11
186.163399244265
 21
-4.55667217907
 31
0.0
  0
LINE
  5
221
330
1F
100
AcDbEntity
  8
1
  6
Continuous
 62
     4
100
AcDbLine
 10
187.288399244265
 20
-2.05667217907
 30
0.0
 11
186.163399244265
 21
-4.55667217907
 31
0.0
  0
LINE
  5
222
330
1F
100
AcDbEntity
  8
1
  6
Continuous
 62
     4
100
AcDbLine
 10
186.163399244265
 20
-4.55667217907
 30
0.0
 11
185.288399244265
 21
-5.80667217907
 31
0.0
  0
LINE
  5
223
330
1F
100
AcDbEntity
  8
1
  6
Continuous
 62
     4
100
AcDbLine
 10
185.288399244265
 20
-5.80667217907
 30
0.0
 11
185.038399244265
 21
-6.18167217907
 31
0.0
  0
LINE
  5
224
330
1F
100
AcDbEntity
  8
1
  6
Continuous
 62
     4
100
AcDbLine
 10
187.538399244265
 20
-4.55667217907
 30
0.0
 11
193.163399244265
 21
-4.55667217907
 31
0.0
  0
LINE
  5
225
330
1F
100
AcDbEntity
  8
1
  6
Continuous
 62
     4
100
AcDbLine
 10
190.288399244265
 20
-2.05667217907
 30
0.0
 11
190.288399244265
 21
-11.80667217907
 31
0.0
  0
LINE
  5
226
330
1F
100
AcDbEntity
  8
1
  6
Continuous
 62
     4
100
AcDbLine
 10
186.788399244265
 20
-9.93167217907
 30
0.0
 11
188.413399244265
 21
-8.05667217907
 31
0.0
  0
LINE
  5
227
330
1F
100
AcDbEntity
  8
1
  6
Continuous
 62
     4
100
AcDbLine
 10
188.413399244265
 20
-8.05667217907
 30
0.0
 11
189.788399244265
 21
-6.18167217907
 31
0.0
  0
LINE
  5
228
330
1F
100
AcDbEntity
  8
1
  6
Continuous
 62
     4
100
AcDbLine
 10
189.788399244265
 20
-6.18167217907
 30
0.0
 11
190.288399244265
 21
-4.55667217907
 31
0.0
  0
LINE
  5
229
330
1F
100
AcDbEntity
  8
1
  6
Continuous
 62
     4
100
AcDbLine
 10
190.288399244265
 20
-4.55667217907
 30
0.0
 11
190.913399244265
 21
-6.18167217907
 31
0.0
  0
LINE
  5
22A
330
1F
100
AcDbEntity
  8
1
  6
Continuous
 62
     4
100
AcDbLine
 10
190.913399244265
 20
-6.18167217907
 30
0.0
 11
192.038399244265
 21
-8.30667217907
 31
0.0
  0
LINE
  5
22B
330
1F
100
AcDbEntity
  8
1
  6
Continuous
 62
     4
100
AcDbLine
 10
192.038399244265
 20
-8.30667217907
 30
0.0
 11
193.163399244265
 21
-9.93167217907
 31
0.0
  0
LINE
  5
22C
330
1F
100
AcDbEntity
  8
1
  6
Continuous
 62
     4
100
AcDbLine
 10
188.913399244265
 20
-9.30667217907
 30
0.0
 11
191.788399244265
 21
-9.30667217907
 31
0.0
  0
LINE
  5
22D
330
1F
100
AcDbEntity
  8
1
  6
Continuous
 62
     4
100
AcDbLine
 10
196.413399244265
 20
-4.30667217907
 30
0.0
 11
202.038399244265
 21
-4.30667217907
 31
0.0
  0
LINE
  5
22E
330
1F
100
AcDbEntity
  8
1
  6
Continuous
 62
     4
100
AcDbLine
 10
202.038399244265
 20
-4.30667217907
 30
0.0
 11
201.413399244265
 21
-6.80667217907
 31
0.0
  0
LINE
  5
22F
330
1F
100
AcDbEntity
  8
1
  6
Continuous
 62
     4
100
AcDbLine
 10
201.413399244265
 20
-6.80667217907
 30
0.0
 11
199.788399244265
 21
-9.30667217907
 31
0.0
  0
LINE
  5
230
330
1F
100
AcDbEntity
  8
1
  6
Continuous
 62
     4
100
AcDbLine
 10
199.788399244265
 20
-9.30667217907
 30
0.0
 11
198.163399244265
 21
-10.80667217907
 31
0.0
  0
LINE
  5
231
330
1F
100
AcDbEntity
  8
1
  6
Continuous
 62
     4
100
AcDbLine
 10
207.788399244265
 20
-10.80667217907
 30
0.0
 11
209.788399244265
 21
-9.55667217907
 31
0.0
  0
LINE
  5
232
330
1F
100
AcDbEntity
  8
1
  6
Continuous
 62
     4
100
AcDbLine
 10
209.788399244265
 20
-9.55667217907
 30
0.0
 11
211.413399244265
 21
-7.43167217907
 31
0.0
  0
LINE
  5
233
330
1F
100
AcDbEntity
  8
1
  6
Continuous
 62
     4
100
AcDbLine
 10
211.413399244265
 20
-7.43167217907
 30
0.0
 11
212.038399244265
 21
-5.80667217907
 31
0.0
  0
LINE
  5
234
330
1F
100
AcDbEntity
  8
1
  6
Continuous
 62
     4
100
AcDbLine
 10
212.038399244265
 20
-5.80667217907
 30
0.0
 11
206.413399244265
 21
-5.80667217907
 31
0.0
  0
LINE
  5
235
330
1F
100
AcDbEntity
  8
1
  6
Continuous
 62
     4
100
AcDbLine
 10
207.038399244265
 20
-3.68167217907
 30
0.0
 11
211.413399244265
 21
-3.68167217907
 31
0.0
  0
LINE
  5
236
330
1F
100
AcDbEntity
  8
1
  6
Continuous
 62
     4
100
AcDbLine
 10
216.413399244265
 20
-4.30667217907
 30
0.0
 11
217.788399244265
 21
-5.80667217907
 31
0.0
  0
LINE
  5
237
330
1F
100
AcDbEntity
  8
1
  6
Continuous
 62
     4
100
AcDbLine
 10
216.788399244265
 20
-9.93167217907
 30
0.0
 11
218.663399244265
 21
-8.93167217907
 31
0.0
  0
LINE
  5
238
330
1F
100
AcDbEntity
  8
1
  6
Continuous
 62
     4
100
AcDbLine
 10
218.663399244265
 20
-8.93167217907
 30
0.0
 11
220.913399244265
 21
-6.80667217907
 31
0.0
  0
LINE
  5
239
330
1F
100
AcDbEntity
  8
1
  6
Continuous
 62
     4
100
AcDbLine
 10
220.913399244265
 20
-6.80667217907
 30
0.0
 11
222.288399244265
 21
-4.93167217907
 31
0.0
  0
LINE
  5
23A
330
1F
100
AcDbEntity
  8
1
  6
Continuous
 62
     4
100
AcDbLine
 10
226.788399244265
 20
-10.80667217907
 30
0.0
 11
228.913399244265
 21
-9.55667217907
 31
0.0
  0
LINE
  5
23B
330
1F
100
AcDbEntity
  8
1
  6
Continuous
 62
     4
100
AcDbLine
 10
228.913399244265
 20
-9.55667217907
 30
0.0
 11
231.163399244265
 21
-7.68167217907
 31
0.0
  0
LINE
  5
23C
330
1F
100
AcDbEntity
  8
1
  6
Continuous
 62
     4
100
AcDbLine
 10
231.163399244265
 20
-7.68167217907
 30
0.0
 11
232.538399244265
 21
-5.80667217907
 31
0.0
  0
LINE
  5
23D
330
1F
100
AcDbEntity
  8
1
  6
Continuous
 62
     4
100
AcDbLine
 10
231.788399244265
 20
-3.93167217907
 30
0.0
 11
230.913399244265
 21
-3.05667217907
 31
0.0
  0
LINE
  5
23E
330
1F
100
AcDbEntity
  8
1
  6
Continuous
 62
     4
100
AcDbLine
 10
230.288399244265
 20
-3.68167217907
 30
0.0
 11
231.163399244265
 21
-4.55667217907
 31
0.0
  0
LINE
  5
23F
330
1F
100
AcDbEntity
  8
1
  6
Continuous
 62
     4
100
AcDbLine
 10
228.913399244265
 20
-5.18167217907
 30
0.0
 11
227.288399244265
 21
-3.93167217907
 31
0.0
  0
LINE
  5
240
330
1F
100
AcDbEntity
  8
1
  6
Continuous
 62
     4
100
AcDbLine
 10
226.163399244265
 20
-5.80667217907
 30
0.0
 11
228.163399244265
 21
-7.05667217907
 31
0.0
  0
LINE
  5
241
330
1F
100
AcDbEntity
  8
1
  6
Continuous
 62
     4
100
AcDbLine
 10
153.788399244265
 20
-18.46667217907
 30
0.0
 11
153.788399244265
 21
-26.71667217907
 31
0.0
  0
LINE
  5
242
330
1F
100
AcDbEntity
  8
1
  6
Continuous
 62
     4
100
AcDbLine
 10
153.788399244265
 20
-26.71667217907
 30
0.0
 11
153.288399244265
 21
-27.71667217907
 31
0.0
  0
LINE
  5
243
330
1F
100
AcDbEntity
  8
1
  6
Continuous
 62
     4
100
AcDbLine
 10
153.288399244265
 20
-27.71667217907
 30
0.0
 11
152.538399244265
 21
-28.21667217907
 31
0.0
  0
LINE
  5
244
330
1F
100
AcDbEntity
  8
1
  6
Continuous
 62
     4
100
AcDbLine
 10
152.538399244265
 20
-28.21667217907
 30
0.0
 11
151.788399244265
 21
-28.46667217907
 31
0.0
  0
LINE
  5
245
330
1F
100
AcDbEntity
  8
1
  6
Continuous
 62
     4
100
AcDbLine
 10
151.788399244265
 20
-28.46667217907
 30
0.0
 11
149.788399244265
 21
-28.46667217907
 31
0.0
  0
LINE
  5
246
330
1F
100
AcDbEntity
  8
1
  6
Continuous
 62
     4
100
AcDbLine
 10
156.788399244265
 20
-28.46667217907
 30
0.0
 11
156.788399244265
 21
-18.46667217907
 31
0.0
  0
LINE
  5
247
330
1F
100
AcDbEntity
  8
1
  6
Continuous
 62
     4
100
AcDbLine
 10
166.538399244265
 20
-19.46667217907
 30
0.0
 11
165.788399244265
 21
-18.96667217907
 31
0.0
  0
LINE
  5
248
330
1F
100
AcDbEntity
  8
1
  6
Continuous
 62
     4
100
AcDbLine
 10
165.788399244265
 20
-18.96667217907
 30
0.0
 11
165.038399244265
 21
-18.71667217907
 31
0.0
  0
LINE
  5
249
330
1F
100
AcDbEntity
  8
1
  6
Continuous
 62
     4
100
AcDbLine
 10
165.038399244265
 20
-18.71667217907
 30
0.0
 11
163.788399244265
 21
-18.46667217907
 31
0.0
  0
LINE
  5
24A
330
1F
100
AcDbEntity
  8
1
  6
Continuous
 62
     4
100
AcDbLine
 10
163.788399244265
 20
-18.46667217907
 30
0.0
 11
162.788399244265
 21
-18.46667217907
 31
0.0
  0
LINE
  5
24B
330
1F
100
AcDbEntity
  8
1
  6
Continuous
 62
     4
100
AcDbLine
 10
162.788399244265
 20
-18.46667217907
 30
0.0
 11
161.788399244265
 21
-18.71667217907
 31
0.0
  0
LINE
  5
24C
330
1F
100
AcDbEntity
  8
1
  6
Continuous
 62
     4
100
AcDbLine
 10
161.788399244265
 20
-18.71667217907
 30
0.0
 11
161.038399244265
 21
-18.96667217907
 31
0.0
  0
LINE
  5
24D
330
1F
100
AcDbEntity
  8
1
  6
Continuous
 62
     4
100
AcDbLine
 10
161.038399244265
 20
-18.96667217907
 30
0.0
 11
160.288399244265
 21
-19.46667217907
 31
0.0
  0
LINE
  5
24E
330
1F
100
AcDbEntity
  8
1
  6
Continuous
 62
     4
100
AcDbLine
 10
160.288399244265
 20
-19.46667217907
 30
0.0
 11
160.038399244265
 21
-20.21667217907
 31
0.0
  0
LINE
  5
24F
330
1F
100
AcDbEntity
  8
1
  6
Continuous
 62
     4
100
AcDbLine
 10
160.038399244265
 20
-20.21667217907
 30
0.0
 11
160.038399244265
 21
-20.71667217907
 31
0.0
  0
LINE
  5
250
330
1F
100
AcDbEntity
  8
1
  6
Continuous
 62
     4
100
AcDbLine
 10
160.038399244265
 20
-20.71667217907
 30
0.0
 11
160.288399244265
 21
-21.46667217907
 31
0.0
  0
LINE
  5
251
330
1F
100
AcDbEntity
  8
1
  6
Continuous
 62
     4
100
AcDbLine
 10
160.288399244265
 20
-21.46667217907
 30
0.0
 11
161.038399244265
 21
-21.96667217907
 31
0.0
  0
LINE
  5
252
330
1F
100
AcDbEntity
  8
1
  6
Continuous
 62
     4
100
AcDbLine
 10
161.038399244265
 20
-21.96667217907
 30
0.0
 11
165.288399244265
 21
-23.71667217907
 31
0.0
  0
LINE
  5
253
330
1F
100
AcDbEntity
  8
1
  6
Continuous
 62
     4
100
AcDbLine
 10
165.288399244265
 20
-23.71667217907
 30
0.0
 11
166.038399244265
 21
-24.21667217907
 31
0.0
  0
LINE
  5
254
330
1F
100
AcDbEntity
  8
1
  6
Continuous
 62
     4
100
AcDbLine
 10
166.038399244265
 20
-24.21667217907
 30
0.0
 11
166.538399244265
 21
-24.96667217907
 31
0.0
  0
LINE
  5
255
330
1F
100
AcDbEntity
  8
1
  6
Continuous
 62
     4
100
AcDbLine
 10
166.538399244265
 20
-24.96667217907
 30
0.0
 11
166.788399244265
 21
-25.71667217907
 31
0.0
  0
LINE
  5
256
330
1F
100
AcDbEntity
  8
1
  6
Continuous
 62
     4
100
AcDbLine
 10
166.788399244265
 20
-25.71667217907
 30
0.0
 11
166.788399244265
 21
-26.21667217907
 31
0.0
  0
LINE
  5
257
330
1F
100
AcDbEntity
  8
1
  6
Continuous
 62
     4
100
AcDbLine
 10
166.788399244265
 20
-26.21667217907
 30
0.0
 11
166.538399244265
 21
-26.96667217907
 31
0.0
  0
LINE
  5
258
330
1F
100
AcDbEntity
  8
1
  6
Continuous
 62
     4
100
AcDbLine
 10
166.538399244265
 20
-26.96667217907
 30
0.0
 11
166.038399244265
 21
-27.71667217907
 31
0.0
  0
LINE
  5
259
330
1F
100
AcDbEntity
  8
1
  6
Continuous
 62
     4
100
AcDbLine
 10
166.038399244265
 20
-27.71667217907
 30
0.0
 11
165.288399244265
 21
-28.21667217907
 31
0.0
  0
LINE
  5
25A
330
1F
100
AcDbEntity
  8
1
  6
Continuous
 62
     4
100
AcDbLine
 10
165.288399244265
 20
-28.21667217907
 30
0.0
 11
164.038399244265
 21
-28.46667217907
 31
0.0
  0
LINE
  5
25B
330
1F
100
AcDbEntity
  8
1
  6
Continuous
 62
     4
100
AcDbLine
 10
164.038399244265
 20
-28.46667217907
 30
0.0
 11
162.538399244265
 21
-28.46667217907
 31
0.0
  0
LINE
  5
25C
330
1F
100
AcDbEntity
  8
1
  6
Continuous
 62
     4
100
AcDbLine
 10
162.538399244265
 20
-28.46667217907
 30
0.0
 11
161.288399244265
 21
-28.21667217907
 31
0.0
  0
LINE
  5
25D
330
1F
100
AcDbEntity
  8
1
  6
Continuous
 62
     4
100
AcDbLine
 10
161.288399244265
 20
-28.21667217907
 30
0.0
 11
160.288399244265
 21
-27.71667217907
 31
0.0
  0
LINE
  5
25E
330
1F
100
AcDbEntity
  8
1
  6
Continuous
 62
     4
100
AcDbLine
 10
160.288399244265
 20
-27.71667217907
 30
0.0
 11
159.788399244265
 21
-27.21667217907
 31
0.0
  0
LINE
  5
25F
330
1F
100
AcDbEntity
  8
1
  6
Continuous
 62
     4
100
AcDbLine
 10
177.788399244265
 20
-22.96667217907
 30
0.0
 11
181.788399244265
 21
-22.96667217907
 31
0.0
  0
LINE
  5
260
330
1F
100
AcDbEntity
  8
1
  6
Continuous
 62
     4
100
AcDbLine
 10
181.788399244265
 20
-22.96667217907
 30
0.0
 11
182.288399244265
 21
-22.96667217907
 31
0.0
  0
LINE
  5
261
330
1F
100
AcDbEntity
  8
1
  6
Continuous
 62
     4
100
AcDbLine
 10
182.288399244265
 20
-22.96667217907
 30
0.0
 11
183.288399244265
 21
-23.46667217907
 31
0.0
  0
LINE
  5
262
330
1F
100
AcDbEntity
  8
1
  6
Continuous
 62
     4
100
AcDbLine
 10
183.288399244265
 20
-23.46667217907
 30
0.0
 11
183.788399244265
 21
-23.96667217907
 31
0.0
  0
LINE
  5
263
330
1F
100
AcDbEntity
  8
1
  6
Continuous
 62
     4
100
AcDbLine
 10
183.788399244265
 20
-23.96667217907
 30
0.0
 11
184.288399244265
 21
-25.21667217907
 31
0.0
  0
LINE
  5
264
330
1F
100
AcDbEntity
  8
1
  6
Continuous
 62
     4
100
AcDbLine
 10
184.288399244265
 20
-25.21667217907
 30
0.0
 11
184.288399244265
 21
-26.46667217907
 31
0.0
  0
LINE
  5
265
330
1F
100
AcDbEntity
  8
1
  6
Continuous
 62
     4
100
AcDbLine
 10
184.288399244265
 20
-26.46667217907
 30
0.0
 11
183.788399244265
 21
-27.46667217907
 31
0.0
  0
LINE
  5
266
330
1F
100
AcDbEntity
  8
1
  6
Continuous
 62
     4
100
AcDbLine
 10
183.788399244265
 20
-27.46667217907
 30
0.0
 11
183.288399244265
 21
-27.96667217907
 31
0.0
  0
LINE
  5
267
330
1F
100
AcDbEntity
  8
1
  6
Continuous
 62
     4
100
AcDbLine
 10
183.288399244265
 20
-27.96667217907
 30
0.0
 11
182.288399244265
 21
-28.46667217907
 31
0.0
  0
LINE
  5
268
330
1F
100
AcDbEntity
  8
1
  6
Continuous
 62
     4
100
AcDbLine
 10
182.288399244265
 20
-28.46667217907
 30
0.0
 11
177.788399244265
 21
-28.46667217907
 31
0.0
  0
LINE
  5
269
330
1F
100
AcDbEntity
  8
1
  6
Continuous
 62
     4
100
AcDbLine
 10
177.788399244265
 20
-28.46667217907
 30
0.0
 11
177.788399244265
 21
-22.96667217907
 31
0.0
  0
LINE
  5
26A
330
1F
100
AcDbEntity
  8
1
  6
Continuous
 62
     4
100
AcDbLine
 10
177.788399244265
 20
-18.46667217907
 30
0.0
 11
181.538399244265
 21
-18.46667217907
 31
0.0
  0
LINE
  5
26B
330
1F
100
AcDbEntity
  8
1
  6
Continuous
 62
     4
100
AcDbLine
 10
181.538399244265
 20
-18.46667217907
 30
0.0
 11
182.788399244265
 21
-18.71667217907
 31
0.0
  0
LINE
  5
26C
330
1F
100
AcDbEntity
  8
1
  6
Continuous
 62
     4
100
AcDbLine
 10
182.788399244265
 20
-18.71667217907
 30
0.0
 11
183.538399244265
 21
-19.46667217907
 31
0.0
  0
LINE
  5
26D
330
1F
100
AcDbEntity
  8
1
  6
Continuous
 62
     4
100
AcDbLine
 10
183.538399244265
 20
-19.46667217907
 30
0.0
 11
183.788399244265
 21
-20.46667217907
 31
0.0
  0
LINE
  5
26E
330
1F
100
AcDbEntity
  8
1
  6
Continuous
 62
     4
100
AcDbLine
 10
183.788399244265
 20
-20.46667217907
 30
0.0
 11
183.788399244265
 21
-21.21667217907
 31
0.0
  0
LINE
  5
26F
330
1F
100
AcDbEntity
  8
1
  6
Continuous
 62
     4
100
AcDbLine
 10
183.788399244265
 20
-21.21667217907
 30
0.0
 11
183.288399244265
 21
-22.21667217907
 31
0.0
  0
LINE
  5
270
330
1F
100
AcDbEntity
  8
1
  6
Continuous
 62
     4
100
AcDbLine
 10
183.288399244265
 20
-22.21667217907
 30
0.0
 11
182.538399244265
 21
-22.71667217907
 31
0.0
  0
LINE
  5
271
330
1F
100
AcDbEntity
  8
1
  6
Continuous
 62
     4
100
AcDbLine
 10
182.538399244265
 20
-22.71667217907
 30
0.0
 11
181.788399244265
 21
-22.96667217907
 31
0.0
  0
LINE
  5
272
330
1F
100
AcDbEntity
  8
1
  6
Continuous
 62
     4
100
AcDbLine
 10
177.788399244265
 20
-22.96667217907
 30
0.0
 11
177.788399244265
 21
-18.46667217907
 31
0.0
  0
LINE
  5
273
330
1F
100
AcDbEntity
  8
1
  6
Continuous
 62
     4
100
AcDbLine
 10
195.288399244265
 20
-19.96667217907
 30
0.0
 11
195.788399244265
 21
-19.21667217907
 31
0.0
  0
LINE
  5
274
330
1F
100
AcDbEntity
  8
1
  6
Continuous
 62
     4
100
AcDbLine
 10
195.788399244265
 20
-19.21667217907
 30
0.0
 11
196.538399244265
 21
-18.71667217907
 31
0.0
  0
LINE
  5
275
330
1F
100
AcDbEntity
  8
1
  6
Continuous
 62
     4
100
AcDbLine
 10
196.538399244265
 20
-18.71667217907
 30
0.0
 11
197.538399244265
 21
-18.46667217907
 31
0.0
  0
LINE
  5
276
330
1F
100
AcDbEntity
  8
1
  6
Continuous
 62
     4
100
AcDbLine
 10
197.538399244265
 20
-18.46667217907
 30
0.0
 11
199.038399244265
 21
-18.46667217907
 31
0.0
  0
LINE
  5
277
330
1F
100
AcDbEntity
  8
1
  6
Continuous
 62
     4
100
AcDbLine
 10
199.038399244265
 20
-18.46667217907
 30
0.0
 11
200.038399244265
 21
-18.71667217907
 31
0.0
  0
LINE
  5
278
330
1F
100
AcDbEntity
  8
1
  6
Continuous
 62
     4
100
AcDbLine
 10
200.038399244265
 20
-18.71667217907
 30
0.0
 11
200.788399244265
 21
-19.21667217907
 31
0.0
  0
LINE
  5
279
330
1F
100
AcDbEntity
  8
1
  6
Continuous
 62
     4
100
AcDbLine
 10
200.788399244265
 20
-19.21667217907
 30
0.0
 11
201.288399244265
 21
-19.96667217907
 31
0.0
  0
LINE
  5
27A
330
1F
100
AcDbEntity
  8
1
  6
Continuous
 62
     4
100
AcDbLine
 10
201.288399244265
 20
-19.96667217907
 30
0.0
 11
201.288399244265
 21
-20.96667217907
 31
0.0
  0
LINE
  5
27B
330
1F
100
AcDbEntity
  8
1
  6
Continuous
 62
     4
100
AcDbLine
 10
201.288399244265
 20
-20.96667217907
 30
0.0
 11
200.788399244265
 21
-21.96667217907
 31
0.0
  0
LINE
  5
27C
330
1F
100
AcDbEntity
  8
1
  6
Continuous
 62
     4
100
AcDbLine
 10
200.788399244265
 20
-21.96667217907
 30
0.0
 11
195.288399244265
 21
-28.46667217907
 31
0.0
  0
LINE
  5
27D
330
1F
100
AcDbEntity
  8
1
  6
Continuous
 62
     4
100
AcDbLine
 10
195.288399244265
 20
-28.46667217907
 30
0.0
 11
201.288399244265
 21
-28.46667217907
 31
0.0
  0
LINE
  5
27E
330
1F
100
AcDbEntity
  8
1
  6
Continuous
 62
     4
100
AcDbLine
 10
204.288399244265
 20
-19.96667217907
 30
0.0
 11
204.788399244265
 21
-19.21667217907
 31
0.0
  0
LINE
  5
27F
330
1F
100
AcDbEntity
  8
1
  6
Continuous
 62
     4
100
AcDbLine
 10
204.788399244265
 20
-19.21667217907
 30
0.0
 11
205.538399244265
 21
-18.71667217907
 31
0.0
  0
LINE
  5
280
330
1F
100
AcDbEntity
  8
1
  6
Continuous
 62
     4
100
AcDbLine
 10
205.538399244265
 20
-18.71667217907
 30
0.0
 11
206.538399244265
 21
-18.46667217907
 31
0.0
  0
LINE
  5
281
330
1F
100
AcDbEntity
  8
1
  6
Continuous
 62
     4
100
AcDbLine
 10
206.538399244265
 20
-18.46667217907
 30
0.0
 11
208.038399244265
 21
-18.46667217907
 31
0.0
  0
LINE
  5
282
330
1F
100
AcDbEntity
  8
1
  6
Continuous
 62
     4
100
AcDbLine
 10
208.038399244265
 20
-18.46667217907
 30
0.0
 11
209.038399244265
 21
-18.71667217907
 31
0.0
  0
LINE
  5
283
330
1F
100
AcDbEntity
  8
1
  6
Continuous
 62
     4
100
AcDbLine
 10
209.038399244265
 20
-18.71667217907
 30
0.0
 11
209.788399244265
 21
-19.21667217907
 31
0.0
  0
LINE
  5
284
330
1F
100
AcDbEntity
  8
1
  6
Continuous
 62
     4
100
AcDbLine
 10
209.788399244265
 20
-19.21667217907
 30
0.0
 11
210.288399244265
 21
-19.96667217907
 31
0.0
  0
LINE
  5
285
330
1F
100
AcDbEntity
  8
1
  6
Continuous
 62
     4
100
AcDbLine
 10
210.288399244265
 20
-19.96667217907
 30
0.0
 11
210.288399244265
 21
-20.96667217907
 31
0.0
  0
LINE
  5
286
330
1F
100
AcDbEntity
  8
1
  6
Continuous
 62
     4
100
AcDbLine
 10
210.288399244265
 20
-20.96667217907
 30
0.0
 11
209.788399244265
 21
-21.96667217907
 31
0.0
  0
LINE
  5
287
330
1F
100
AcDbEntity
  8
1
  6
Continuous
 62
     4
100
AcDbLine
 10
209.788399244265
 20
-21.96667217907
 30
0.0
 11
204.288399244265
 21
-28.46667217907
 31
0.0
  0
LINE
  5
288
330
1F
100
AcDbEntity
  8
1
  6
Continuous
 62
     4
100
AcDbLine
 10
204.288399244265
 20
-28.46667217907
 30
0.0
 11
210.288399244265
 21
-28.46667217907
 31
0.0
  0
LINE
  5
289
330
1F
100
AcDbEntity
  8
1
  6
Continuous
 62
     4
100
AcDbLine
 10
217.788399244265
 20
-18.46667217907
 30
0.0
 11
213.288399244265
 21
-26.46667217907
 31
0.0
  0
LINE
  5
28A
330
1F
100
AcDbEntity
  8
1
  6
Continuous
 62
     4
100
AcDbLine
 10
213.288399244265
 20
-26.46667217907
 30
0.0
 11
219.288399244265
 21
-26.46667217907
 31
0.0
  0
LINE
  5
28B
330
1F
100
AcDbEntity
  8
1
  6
Continuous
 62
     4
100
AcDbLine
 10
217.788399244265
 20
-24.46667217907
 30
0.0
 11
217.788399244265
 21
-28.46667217907
 31
0.0
  0
LINE
  5
28C
330
1F
100
AcDbEntity
  8
1
  6
Continuous
 62
     4
100
AcDbLine
 10
228.288399244265
 20
-24.71667217907
 30
0.0
 11
228.038399244265
 21
-26.21667217907
 31
0.0
  0
LINE
  5
28D
330
1F
100
AcDbEntity
  8
1
  6
Continuous
 62
     4
100
AcDbLine
 10
228.038399244265
 20
-26.21667217907
 30
0.0
 11
227.538399244265
 21
-27.21667217907
 31
0.0
  0
LINE
  5
28E
330
1F
100
AcDbEntity
  8
1
  6
Continuous
 62
     4
100
AcDbLine
 10
227.538399244265
 20
-27.21667217907
 30
0.0
 11
227.038399244265
 21
-27.71667217907
 31
0.0
  0
LINE
  5
28F
330
1F
100
AcDbEntity
  8
1
  6
Continuous
 62
     4
100
AcDbLine
 10
227.038399244265
 20
-27.71667217907
 30
0.0
 11
226.288399244265
 21
-28.21667217907
 31
0.0
  0
LINE
  5
290
330
1F
100
AcDbEntity
  8
1
  6
Continuous
 62
     4
100
AcDbLine
 10
226.288399244265
 20
-28.21667217907
 30
0.0
 11
225.538399244265
 21
-28.46667217907
 31
0.0
  0
LINE
  5
291
330
1F
100
AcDbEntity
  8
1
  6
Continuous
 62
     4
100
AcDbLine
 10
225.538399244265
 20
-28.46667217907
 30
0.0
 11
225.038399244265
 21
-28.46667217907
 31
0.0
  0
LINE
  5
292
330
1F
100
AcDbEntity
  8
1
  6
Continuous
 62
     4
100
AcDbLine
 10
225.038399244265
 20
-28.46667217907
 30
0.0
 11
224.288399244265
 21
-28.21667217907
 31
0.0
  0
LINE
  5
293
330
1F
100
AcDbEntity
  8
1
  6
Continuous
 62
     4
100
AcDbLine
 10
224.288399244265
 20
-28.21667217907
 30
0.0
 11
223.538399244265
 21
-27.71667217907
 31
0.0
  0
LINE
  5
294
330
1F
100
AcDbEntity
  8
1
  6
Continuous
 62
     4
100
AcDbLine
 10
223.538399244265
 20
-27.71667217907
 30
0.0
 11
223.038399244265
 21
-27.21667217907
 31
0.0
  0
LINE
  5
295
330
1F
100
AcDbEntity
  8
1
  6
Continuous
 62
     4
100
AcDbLine
 10
223.038399244265
 20
-27.21667217907
 30
0.0
 11
222.538399244265
 21
-26.21667217907
 31
0.0
  0
LINE
  5
296
330
1F
100
AcDbEntity
  8
1
  6
Continuous
 62
     4
100
AcDbLine
 10
222.538399244265
 20
-26.21667217907
 30
0.0
 11
222.288399244265
 21
-24.71667217907
 31
0.0
  0
LINE
  5
297
330
1F
100
AcDbEntity
  8
1
  6
Continuous
 62
     4
100
AcDbLine
 10
222.288399244265
 20
-24.71667217907
 30
0.0
 11
222.288399244265
 21
-22.21667217907
 31
0.0
  0
LINE
  5
298
330
1F
100
AcDbEntity
  8
1
  6
Continuous
 62
     4
100
AcDbLine
 10
222.288399244265
 20
-22.21667217907
 30
0.0
 11
222.538399244265
 21
-20.71667217907
 31
0.0
  0
LINE
  5
299
330
1F
100
AcDbEntity
  8
1
  6
Continuous
 62
     4
100
AcDbLine
 10
222.538399244265
 20
-20.71667217907
 30
0.0
 11
223.038399244265
 21
-19.71667217907
 31
0.0
  0
LINE
  5
29A
330
1F
100
AcDbEntity
  8
1
  6
Continuous
 62
     4
100
AcDbLine
 10
223.038399244265
 20
-19.71667217907
 30
0.0
 11
223.538399244265
 21
-19.21667217907
 31
0.0
  0
LINE
  5
29B
330
1F
100
AcDbEntity
  8
1
  6
Continuous
 62
     4
100
AcDbLine
 10
223.538399244265
 20
-19.21667217907
 30
0.0
 11
224.288399244265
 21
-18.71667217907
 31
0.0
  0
LINE
  5
29C
330
1F
100
AcDbEntity
  8
1
  6
Continuous
 62
     4
100
AcDbLine
 10
224.288399244265
 20
-18.71667217907
 30
0.0
 11
225.038399244265
 21
-18.46667217907
 31
0.0
  0
LINE
  5
29D
330
1F
100
AcDbEntity
  8
1
  6
Continuous
 62
     4
100
AcDbLine
 10
225.038399244265
 20
-18.46667217907
 30
0.0
 11
225.538399244265
 21
-18.46667217907
 31
0.0
  0
LINE
  5
29E
330
1F
100
AcDbEntity
  8
1
  6
Continuous
 62
     4
100
AcDbLine
 10
225.538399244265
 20
-18.46667217907
 30
0.0
 11
226.288399244265
 21
-18.71667217907
 31
0.0
  0
LINE
  5
29F
330
1F
100
AcDbEntity
  8
1
  6
Continuous
 62
     4
100
AcDbLine
 10
226.288399244265
 20
-18.71667217907
 30
0.0
 11
227.038399244265
 21
-19.21667217907
 31
0.0
  0
LINE
  5
2A0
330
1F
100
AcDbEntity
  8
1
  6
Continuous
 62
     4
100
AcDbLine
 10
227.038399244265
 20
-19.21667217907
 30
0.0
 11
227.538399244265
 21
-19.71667217907
 31
0.0
  0
LINE
  5
2A1
330
1F
100
AcDbEntity
  8
1
  6
Continuous
 62
     4
100
AcDbLine
 10
227.538399244265
 20
-19.71667217907
 30
0.0
 11
228.038399244265
 21
-20.71667217907
 31
0.0
  0
LINE
  5
2A2
330
1F
100
AcDbEntity
  8
1
  6
Continuous
 62
     4
100
AcDbLine
 10
228.038399244265
 20
-20.71667217907
 30
0.0
 11
228.288399244265
 21
-22.21667217907
 31
0.0
  0
LINE
  5
2A3
330
1F
100
AcDbEntity
  8
1
  6
Continuous
 62
     4
100
AcDbLine
 10
228.288399244265
 20
-22.21667217907
 30
0.0
 11
228.288399244265
 21
-24.71667217907
 31
0.0
  0
LINE
  5
2A4
330
1F
100
AcDbEntity
  8
1
  6
Continuous
 62
     4
100
AcDbLine
 10
150.288399244265
 20
-44.50167217907
 30
0.0
 11
153.413399244265
 21
-43.50167217907
 31
0.0
  0
LINE
  5
2A5
330
1F
100
AcDbEntity
  8
1
  6
Continuous
 62
     4
100
AcDbLine
 10
153.163399244265
 20
-42.62667217907
 30
0.0
 11
153.413399244265
 21
-41.37667217907
 31
0.0
  0
LINE
  5
2A6
330
1F
100
AcDbEntity
  8
1
  6
Continuous
 62
     4
100
AcDbLine
 10
153.413399244265
 20
-40.37667217907
 30
0.0
 11
150.288399244265
 21
-40.37667217907
 31
0.0
  0
LINE
  5
2A7
330
1F
100
AcDbEntity
  8
1
  6
Continuous
 62
     4
100
AcDbLine
 10
150.913399244265
 20
-38.87667217907
 30
0.0
 11
152.038399244265
 21
-38.87667217907
 31
0.0
  0
LINE
  5
2A8
330
1F
100
AcDbEntity
  8
1
  6
Continuous
 62
     4
100
AcDbLine
 10
153.663399244265
 20
-37.62667217907
 30
0.0
 11
152.038399244265
 21
-35.75167217907
 31
0.0
  0
LINE
  5
2A9
330
1F
100
AcDbEntity
  8
1
  6
Continuous
 62
     4
100
AcDbLine
 10
152.038399244265
 20
-35.75167217907
 30
0.0
 11
150.913399244265
 21
-37.87667217907
 31
0.0
  0
LINE
  5
2AA
330
1F
100
AcDbEntity
  8
1
  6
Continuous
 62
     4
100
AcDbLine
 10
150.913399244265
 20
-37.87667217907
 30
0.0
 11
149.788399244265
 21
-39.75167217907
 31
0.0
  0
LINE
  5
2AB
330
1F
100
AcDbEntity
  8
1
  6
Continuous
 62
     4
100
AcDbLine
 10
150.663399244265
 20
-41.62667217907
 30
0.0
 11
150.913399244265
 21
-42.87667217907
 31
0.0
  0
LINE
  5
2AC
330
1F
100
AcDbEntity
  8
1
  6
Continuous
 62
     4
100
AcDbLine
 10
152.038399244265
 20
-38.87667217907
 30
0.0
 11
152.038399244265
 21
-43.87667217907
 31
0.0
  0
LINE
  5
2AD
330
1F
100
AcDbEntity
  8
1
  6
Continuous
 62
     4
100
AcDbLine
 10
155.663399244265
 20
-42.00167217907
 30
0.0
 11
157.288399244265
 21
-42.00167217907
 31
0.0
  0
LINE
  5
2AE
330
1F
100
AcDbEntity
  8
1
  6
Continuous
 62
     4
100
AcDbLine
 10
157.288399244265
 20
-42.00167217907
 30
0.0
 11
157.288399244265
 21
-39.50167217907
 31
0.0
  0
LINE
  5
2AF
330
1F
100
AcDbEntity
  8
1
  6
Continuous
 62
     4
100
AcDbLine
 10
157.288399244265
 20
-39.50167217907
 30
0.0
 11
155.663399244265
 21
-39.50167217907
 31
0.0
  0
LINE
  5
2B0
330
1F
100
AcDbEntity
  8
1
  6
Continuous
 62
     4
100
AcDbLine
 10
155.663399244265
 20
-39.50167217907
 30
0.0
 11
155.663399244265
 21
-42.00167217907
 31
0.0
  0
LINE
  5
2B1
330
1F
100
AcDbEntity
  8
1
  6
Continuous
 62
     4
100
AcDbLine
 10
157.538399244265
 20
-37.87667217907
 30
0.0
 11
155.288399244265
 21
-37.87667217907
 31
0.0
  0
LINE
  5
2B2
330
1F
100
AcDbEntity
  8
1
  6
Continuous
 62
     4
100
AcDbLine
 10
154.538399244265
 20
-45.12667217907
 30
0.0
 11
154.538399244265
 21
-36.00167217907
 31
0.0
  0
LINE
  5
2B3
330
1F
100
AcDbEntity
  8
1
  6
Continuous
 62
     4
100
AcDbLine
 10
154.538399244265
 20
-36.00167217907
 30
0.0
 11
158.413399244265
 21
-36.00167217907
 31
0.0
  0
LINE
  5
2B4
330
1F
100
AcDbEntity
  8
1
  6
Continuous
 62
     4
100
AcDbLine
 10
158.413399244265
 20
-36.00167217907
 30
0.0
 11
158.413399244265
 21
-45.12667217907
 31
0.0
  0
LINE
  5
2B5
330
1F
100
AcDbEntity
  8
1
  6
Continuous
 62
     4
100
AcDbLine
 10
158.413399244265
 20
-45.12667217907
 30
0.0
 11
157.788399244265
 21
-45.12667217907
 31
0.0
  0
LINE
  5
2B6
330
1F
100
AcDbEntity
  8
1
  6
Continuous
 62
     4
100
AcDbLine
 10
152.038399244265
 20
-38.87667217907
 30
0.0
 11
153.163399244265
 21
-38.87667217907
 31
0.0
  0
LINE
  5
2B7
330
1F
100
AcDbEntity
  8
1
  6
Continuous
 62
     4
100
AcDbLine
 10
159.788399244265
 20
-41.00167217907
 30
0.0
 11
164.288399244265
 21
-35.37667217907
 31
0.0
  0
LINE
  5
2B8
330
1F
100
AcDbEntity
  8
1
  6
Continuous
 62
     4
100
AcDbLine
 10
164.288399244265
 20
-35.37667217907
 30
0.0
 11
168.663399244265
 21
-40.37667217907
 31
0.0
  0
LINE
  5
2B9
330
1F
100
AcDbEntity
  8
1
  6
Continuous
 62
     4
100
AcDbLine
 10
162.288399244265
 20
-39.50167217907
 30
0.0
 11
165.913399244265
 21
-39.50167217907
 31
0.0
  0
LINE
  5
2BA
330
1F
100
AcDbEntity
  8
1
  6
Continuous
 62
     4
100
AcDbLine
 10
166.163399244265
 20
-41.62667217907
 30
0.0
 11
166.163399244265
 21
-45.12667217907
 31
0.0
  0
LINE
  5
2BB
330
1F
100
AcDbEntity
  8
1
  6
Continuous
 62
     4
100
AcDbLine
 10
166.163399244265
 20
-45.12667217907
 30
0.0
 11
162.038399244265
 21
-45.12667217907
 31
0.0
  0
LINE
  5
2BC
330
1F
100
AcDbEntity
  8
1
  6
Continuous
 62
     4
100
AcDbLine
 10
162.038399244265
 20
-45.12667217907
 30
0.0
 11
162.038399244265
 21
-41.62667217907
 31
0.0
  0
LINE
  5
2BD
330
1F
100
AcDbEntity
  8
1
  6
Continuous
 62
     4
100
AcDbLine
 10
162.038399244265
 20
-41.62667217907
 30
0.0
 11
166.163399244265
 21
-41.62667217907
 31
0.0
  0
LINE
  5
2BE
330
1F
100
AcDbEntity
  8
1
  6
Continuous
 62
     4
100
AcDbLine
 10
170.663399244265
 20
-44.75167217907
 30
0.0
 11
174.288399244265
 21
-44.75167217907
 31
0.0
  0
LINE
  5
2BF
330
1F
100
AcDbEntity
  8
1
  6
Continuous
 62
     4
100
AcDbLine
 10
174.288399244265
 20
-44.75167217907
 30
0.0
 11
174.288399244265
 21
-38.87667217907
 31
0.0
  0
LINE
  5
2C0
330
1F
100
AcDbEntity
  8
1
  6
Continuous
 62
     4
100
AcDbLine
 10
172.288399244265
 20
-38.87667217907
 30
0.0
 11
174.288399244265
 21
-38.87667217907
 31
0.0
  0
LINE
  5
2C1
330
1F
100
AcDbEntity
  8
1
  6
Continuous
 62
     4
100
AcDbLine
 10
177.038399244265
 20
-40.75167217907
 30
0.0
 11
171.413399244265
 21
-40.75167217907
 31
0.0
  0
LINE
  5
2C2
330
1F
100
AcDbEntity
  8
1
  6
Continuous
 62
     4
100
AcDbLine
 10
172.288399244265
 20
-42.00167217907
 30
0.0
 11
172.788399244265
 21
-43.50167217907
 31
0.0
  0
LINE
  5
2C3
330
1F
100
AcDbEntity
  8
1
  6
Continuous
 62
     4
100
AcDbLine
 10
175.663399244265
 20
-43.50167217907
 30
0.0
 11
176.163399244265
 21
-42.00167217907
 31
0.0
  0
LINE
  5
2C4
330
1F
100
AcDbEntity
  8
1
  6
Continuous
 62
     4
100
AcDbLine
 10
169.788399244265
 20
-40.12667217907
 30
0.0
 11
170.913399244265
 21
-39.12667217907
 31
0.0
  0
LINE
  5
2C5
330
1F
100
AcDbEntity
  8
1
  6
Continuous
 62
     4
100
AcDbLine
 10
170.913399244265
 20
-39.12667217907
 30
0.0
 11
172.788399244265
 21
-37.00167217907
 31
0.0
  0
LINE
  5
2C6
330
1F
100
AcDbEntity
  8
1
  6
Continuous
 62
     4
100
AcDbLine
 10
172.788399244265
 20
-37.00167217907
 30
0.0
 11
174.288399244265
 21
-35.12667217907
 31
0.0
  0
LINE
  5
2C7
330
1F
100
AcDbEntity
  8
1
  6
Continuous
 62
     4
100
AcDbLine
 10
174.288399244265
 20
-35.12667217907
 30
0.0
 11
175.663399244265
 21
-37.00167217907
 31
0.0
  0
LINE
  5
2C8
330
1F
100
AcDbEntity
  8
1
  6
Continuous
 62
     4
100
AcDbLine
 10
175.663399244265
 20
-37.00167217907
 30
0.0
 11
177.538399244265
 21
-39.12667217907
 31
0.0
  0
LINE
  5
2C9
330
1F
100
AcDbEntity
  8
1
  6
Continuous
 62
     4
100
AcDbLine
 10
177.538399244265
 20
-39.12667217907
 30
0.0
 11
178.663399244265
 21
-40.12667217907
 31
0.0
  0
LINE
  5
2CA
330
1F
100
AcDbEntity
  8
1
  6
Continuous
 62
     4
100
AcDbLine
 10
174.288399244265
 20
-38.87667217907
 30
0.0
 11
176.163399244265
 21
-38.87667217907
 31
0.0
  0
LINE
  5
2CB
330
1F
100
AcDbEntity
  8
1
  6
Continuous
 62
     4
100
AcDbLine
 10
174.288399244265
 20
-44.75167217907
 30
0.0
 11
177.538399244265
 21
-44.75167217907
 31
0.0
  0
LINE
  5
2CC
330
1F
100
AcDbEntity
  8
1
  6
Continuous
 62
     4
100
AcDbLine
 10
181.413399244265
 20
-44.75167217907
 30
0.0
 11
184.788399244265
 21
-43.50167217907
 31
0.0
  0
LINE
  5
2CD
330
1F
100
AcDbEntity
  8
1
  6
Continuous
 62
     4
100
AcDbLine
 10
183.163399244265
 20
-44.12667217907
 30
0.0
 11
183.163399244265
 21
-42.25167217907
 31
0.0
  0
LINE
  5
2CE
330
1F
100
AcDbEntity
  8
1
  6
Continuous
 62
     4
100
AcDbLine
 10
183.913399244265
 20
-41.62667217907
 30
0.0
 11
183.163399244265
 21
-42.25167217907
 31
0.0
  0
LINE
  5
2CF
330
1F
100
AcDbEntity
  8
1
  6
Continuous
 62
     4
100
AcDbLine
 10
183.163399244265
 20
-42.25167217907
 30
0.0
 11
182.288399244265
 21
-42.87667217907
 31
0.0
  0
LINE
  5
2D0
330
1F
100
AcDbEntity
  8
1
  6
Continuous
 62
     4
100
AcDbLine
 10
182.288399244265
 20
-42.87667217907
 30
0.0
 11
181.163399244265
 21
-43.50167217907
 31
0.0
  0
LINE
  5
2D1
330
1F
100
AcDbEntity
  8
1
  6
Continuous
 62
     4
100
AcDbLine
 10
181.163399244265
 20
-43.50167217907
 30
0.0
 11
180.663399244265
 21
-43.87667217907
 31
0.0
  0
LINE
  5
2D2
330
1F
100
AcDbEntity
  8
1
  6
Continuous
 62
     4
100
AcDbLine
 10
180.663399244265
 20
-43.87667217907
 30
0.0
 11
180.038399244265
 21
-44.12667217907
 31
0.0
  0
LINE
  5
2D3
330
1F
100
AcDbEntity
  8
1
  6
Continuous
 62
     4
100
AcDbLine
 10
180.288399244265
 20
-41.62667217907
 30
0.0
 11
183.913399244265
 21
-41.62667217907
 31
0.0
  0
LINE
  5
2D4
330
1F
100
AcDbEntity
  8
1
  6
Continuous
 62
     4
100
AcDbLine
 10
187.288399244265
 20
-42.25167217907
 30
0.0
 11
185.663399244265
 21
-43.25167217907
 31
0.0
  0
LINE
  5
2D5
330
1F
100
AcDbEntity
  8
1
  6
Continuous
 62
     4
100
AcDbLine
 10
184.538399244265
 20
-42.00167217907
 30
0.0
 11
185.038399244265
 21
-42.62667217907
 31
0.0
  0
LINE
  5
2D6
330
1F
100
AcDbEntity
  8
1
  6
Continuous
 62
     4
100
AcDbLine
 10
185.038399244265
 20
-42.62667217907
 30
0.0
 11
185.663399244265
 21
-43.25167217907
 31
0.0
  0
LINE
  5
2D7
330
1F
100
AcDbEntity
  8
1
  6
Continuous
 62
     4
100
AcDbLine
 10
185.663399244265
 20
-43.25167217907
 30
0.0
 11
186.413399244265
 21
-43.87667217907
 31
0.0
  0
LINE
  5
2D8
330
1F
100
AcDbEntity
  8
1
  6
Continuous
 62
     4
100
AcDbLine
 10
186.413399244265
 20
-43.87667217907
 30
0.0
 11
187.538399244265
 21
-44.50167217907
 31
0.0
  0
LINE
  5
2D9
330
1F
100
AcDbEntity
  8
1
  6
Continuous
 62
     4
100
AcDbLine
 10
187.538399244265
 20
-44.50167217907
 30
0.0
 11
188.163399244265
 21
-44.75167217907
 31
0.0
  0
LINE
  5
2DA
330
1F
100
AcDbEntity
  8
1
  6
Continuous
 62
     4
100
AcDbLine
 10
184.538399244265
 20
-41.62667217907
 30
0.0
 11
184.538399244265
 21
-40.12667217907
 31
0.0
  0
LINE
  5
2DB
330
1F
100
AcDbEntity
  8
1
  6
Continuous
 62
     4
100
AcDbLine
 10
182.288399244265
 20
-40.75167217907
 30
0.0
 11
182.288399244265
 21
-35.12667217907
 31
0.0
  0
LINE
  5
2DC
330
1F
100
AcDbEntity
  8
1
  6
Continuous
 62
     4
100
AcDbLine
 10
180.913399244265
 20
-40.37667217907
 30
0.0
 11
180.913399244265
 21
-38.50167217907
 31
0.0
  0
LINE
  5
2DD
330
1F
100
AcDbEntity
  8
1
  6
Continuous
 62
     4
100
AcDbLine
 10
180.913399244265
 20
-38.50167217907
 30
0.0
 11
183.663399244265
 21
-38.50167217907
 31
0.0
  0
LINE
  5
2DE
330
1F
100
AcDbEntity
  8
1
  6
Continuous
 62
     4
100
AcDbLine
 10
183.663399244265
 20
-38.50167217907
 30
0.0
 11
183.663399244265
 21
-40.37667217907
 31
0.0
  0
LINE
  5
2DF
330
1F
100
AcDbEntity
  8
1
  6
Continuous
 62
     4
100
AcDbLine
 10
183.663399244265
 20
-40.37667217907
 30
0.0
 11
183.413399244265
 21
-40.37667217907
 31
0.0
  0
LINE
  5
2E0
330
1F
100
AcDbEntity
  8
1
  6
Continuous
 62
     4
100
AcDbLine
 10
180.288399244265
 20
-37.62667217907
 30
0.0
 11
184.288399244265
 21
-37.62667217907
 31
0.0
  0
LINE
  5
2E1
330
1F
100
AcDbEntity
  8
1
  6
Continuous
 62
     4
100
AcDbLine
 10
180.913399244265
 20
-36.00167217907
 30
0.0
 11
183.663399244265
 21
-36.00167217907
 31
0.0
  0
LINE
  5
2E2
330
1F
100
AcDbEntity
  8
1
  6
Continuous
 62
     4
100
AcDbLine
 10
181.413399244265
 20
-35.12667217907
 30
0.0
 11
180.913399244265
 21
-36.00167217907
 31
0.0
  0
LINE
  5
2E3
330
1F
100
AcDbEntity
  8
1
  6
Continuous
 62
     4
100
AcDbLine
 10
180.913399244265
 20
-36.00167217907
 30
0.0
 11
180.288399244265
 21
-36.62667217907
 31
0.0
  0
LINE
  5
2E4
330
1F
100
AcDbEntity
  8
1
  6
Continuous
 62
     4
100
AcDbLine
 10
180.288399244265
 20
-36.62667217907
 30
0.0
 11
180.038399244265
 21
-37.00167217907
 31
0.0
  0
LINE
  5
2E5
330
1F
100
AcDbEntity
  8
1
  6
Continuous
 62
     4
100
AcDbLine
 10
185.663399244265
 20
-36.00167217907
 30
0.0
 11
185.663399244265
 21
-39.12667217907
 31
0.0
  0
LINE
  5
2E6
330
1F
100
AcDbEntity
  8
1
  6
Continuous
 62
     4
100
AcDbLine
 10
187.538399244265
 20
-35.37667217907
 30
0.0
 11
187.538399244265
 21
-40.12667217907
 31
0.0
  0
LINE
  5
2E7
330
1F
100
AcDbEntity
  8
1
  6
Continuous
 62
     4
100
AcDbLine
 10
187.538399244265
 20
-40.12667217907
 30
0.0
 11
187.288399244265
 21
-40.37667217907
 31
0.0
  0
LINE
  5
2E8
330
1F
100
AcDbEntity
  8
1
  6
Continuous
 62
     4
100
AcDbLine
 10
187.288399244265
 20
-40.37667217907
 30
0.0
 11
186.788399244265
 21
-40.37667217907
 31
0.0
  0
LINE
  5
2E9
330
1F
100
AcDbEntity
  8
1
  6
Continuous
 62
     4
100
AcDbLine
 10
184.538399244265
 20
-41.62667217907
 30
0.0
 11
188.163399244265
 21
-41.62667217907
 31
0.0
  0
LINE
  5
2EA
330
1F
100
AcDbEntity
  8
1
  6
Continuous
 62
     4
100
AcDbLine
 10
183.913399244265
 20
-41.62667217907
 30
0.0
 11
184.538399244265
 21
-41.62667217907
 31
0.0
  0
LINE
  5
2EB
330
1F
100
AcDbEntity
  8
1
  6
Continuous
 62
     4
100
AcDbLine
 10
196.413399244265
 20
-44.75167217907
 30
0.0
 11
196.413399244265
 21
-43.25167217907
 31
0.0
  0
LINE
  5
2EC
330
1F
100
AcDbEntity
  8
1
  6
Continuous
 62
     4
100
AcDbLine
 10
196.413399244265
 20
-43.25167217907
 30
0.0
 11
192.288399244265
 21
-43.25167217907
 31
0.0
  0
LINE
  5
2ED
330
1F
100
AcDbEntity
  8
1
  6
Continuous
 62
     4
100
AcDbLine
 10
192.288399244265
 20
-43.25167217907
 30
0.0
 11
192.288399244265
 21
-44.75167217907
 31
0.0
  0
LINE
  5
2EE
330
1F
100
AcDbEntity
  8
1
  6
Continuous
 62
     4
100
AcDbLine
 10
192.288399244265
 20
-44.75167217907
 30
0.0
 11
196.413399244265
 21
-44.75167217907
 31
0.0
  0
LINE
  5
2EF
330
1F
100
AcDbEntity
  8
1
  6
Continuous
 62
     4
100
AcDbLine
 10
192.288399244265
 20
-43.25167217907
 30
0.0
 11
192.288399244265
 21
-41.62667217907
 31
0.0
  0
LINE
  5
2F0
330
1F
100
AcDbEntity
  8
1
  6
Continuous
 62
     4
100
AcDbLine
 10
192.288399244265
 20
-40.12667217907
 30
0.0
 11
196.413399244265
 21
-40.12667217907
 31
0.0
  0
LINE
  5
2F1
330
1F
100
AcDbEntity
  8
1
  6
Continuous
 62
     4
100
AcDbLine
 10
196.413399244265
 20
-40.12667217907
 30
0.0
 11
196.413399244265
 21
-41.62667217907
 31
0.0
  0
LINE
  5
2F2
330
1F
100
AcDbEntity
  8
1
  6
Continuous
 62
     4
100
AcDbLine
 10
196.413399244265
 20
-41.62667217907
 30
0.0
 11
192.288399244265
 21
-41.62667217907
 31
0.0
  0
LINE
  5
2F3
330
1F
100
AcDbEntity
  8
1
  6
Continuous
 62
     4
100
AcDbLine
 10
190.288399244265
 20
-40.37667217907
 30
0.0
 11
190.288399244265
 21
-38.87667217907
 31
0.0
  0
LINE
  5
2F4
330
1F
100
AcDbEntity
  8
1
  6
Continuous
 62
     4
100
AcDbLine
 10
190.288399244265
 20
-38.87667217907
 30
0.0
 11
194.288399244265
 21
-38.87667217907
 31
0.0
  0
LINE
  5
2F5
330
1F
100
AcDbEntity
  8
1
  6
Continuous
 62
     4
100
AcDbLine
 10
198.163399244265
 20
-38.87667217907
 30
0.0
 11
198.163399244265
 21
-40.37667217907
 31
0.0
  0
LINE
  5
2F6
330
1F
100
AcDbEntity
  8
1
  6
Continuous
 62
     4
100
AcDbLine
 10
194.288399244265
 20
-37.62667217907
 30
0.0
 11
194.288399244265
 21
-38.87667217907
 31
0.0
  0
LINE
  5
2F7
330
1F
100
AcDbEntity
  8
1
  6
Continuous
 62
     4
100
AcDbLine
 10
191.788399244265
 20
-35.12667217907
 30
0.0
 11
190.288399244265
 21
-37.62667217907
 31
0.0
  0
LINE
  5
2F8
330
1F
100
AcDbEntity
  8
1
  6
Continuous
 62
     4
100
AcDbLine
 10
191.163399244265
 20
-36.00167217907
 30
0.0
 11
193.663399244265
 21
-36.00167217907
 31
0.0
  0
LINE
  5
2F9
330
1F
100
AcDbEntity
  8
1
  6
Continuous
 62
     4
100
AcDbLine
 10
192.038399244265
 20
-36.62667217907
 30
0.0
 11
192.788399244265
 21
-37.87667217907
 31
0.0
  0
LINE
  5
2FA
330
1F
100
AcDbEntity
  8
1
  6
Continuous
 62
     4
100
AcDbLine
 10
195.663399244265
 20
-35.12667217907
 30
0.0
 11
194.538399244265
 21
-37.62667217907
 31
0.0
  0
LINE
  5
2FB
330
1F
100
AcDbEntity
  8
1
  6
Continuous
 62
     4
100
AcDbLine
 10
195.038399244265
 20
-36.00167217907
 30
0.0
 11
197.788399244265
 21
-36.00167217907
 31
0.0
  0
LINE
  5
2FC
330
1F
100
AcDbEntity
  8
1
  6
Continuous
 62
     4
100
AcDbLine
 10
196.163399244265
 20
-36.62667217907
 30
0.0
 11
196.788399244265
 21
-37.87667217907
 31
0.0
  0
LINE
  5
2FD
330
1F
100
AcDbEntity
  8
1
  6
Continuous
 62
     4
100
AcDbLine
 10
194.288399244265
 20
-38.87667217907
 30
0.0
 11
198.163399244265
 21
-38.87667217907
 31
0.0
  0
LINE
  5
2FE
330
1F
100
AcDbEntity
  8
1
  6
Continuous
 62
     4
100
AcDbLine
 10
192.288399244265
 20
-41.62667217907
 30
0.0
 11
192.288399244265
 21
-40.12667217907
 31
0.0
  0
LINE
  5
2FF
330
1F
100
AcDbEntity
  8
1
  6
Continuous
 62
     4
100
AcDbLine
 10
201.413399244265
 20
-37.62667217907
 30
0.0
 11
207.038399244265
 21
-37.62667217907
 31
0.0
  0
LINE
  5
300
330
1F
100
AcDbEntity
  8
1
  6
Continuous
 62
     4
100
AcDbLine
 10
207.038399244265
 20
-37.62667217907
 30
0.0
 11
206.413399244265
 21
-40.12667217907
 31
0.0
  0
LINE
  5
301
330
1F
100
AcDbEntity
  8
1
  6
Continuous
 62
     4
100
AcDbLine
 10
206.413399244265
 20
-40.12667217907
 30
0.0
 11
204.788399244265
 21
-42.62667217907
 31
0.0
  0
LINE
  5
302
330
1F
100
AcDbEntity
  8
1
  6
Continuous
 62
     4
100
AcDbLine
 10
204.788399244265
 20
-42.62667217907
 30
0.0
 11
203.163399244265
 21
-44.12667217907
 31
0.0
  0
LINE
  5
303
330
1F
100
AcDbEntity
  8
1
  6
Continuous
 62
     4
100
AcDbLine
 10
212.788399244265
 20
-44.12667217907
 30
0.0
 11
214.788399244265
 21
-42.87667217907
 31
0.0
  0
LINE
  5
304
330
1F
100
AcDbEntity
  8
1
  6
Continuous
 62
     4
100
AcDbLine
 10
214.788399244265
 20
-42.87667217907
 30
0.0
 11
216.413399244265
 21
-40.75167217907
 31
0.0
  0
LINE
  5
305
330
1F
100
AcDbEntity
  8
1
  6
Continuous
 62
     4
100
AcDbLine
 10
216.413399244265
 20
-40.75167217907
 30
0.0
 11
217.038399244265
 21
-39.12667217907
 31
0.0
  0
LINE
  5
306
330
1F
100
AcDbEntity
  8
1
  6
Continuous
 62
     4
100
AcDbLine
 10
217.038399244265
 20
-39.12667217907
 30
0.0
 11
211.413399244265
 21
-39.12667217907
 31
0.0
  0
LINE
  5
307
330
1F
100
AcDbEntity
  8
1
  6
Continuous
 62
     4
100
AcDbLine
 10
212.038399244265
 20
-37.00167217907
 30
0.0
 11
216.413399244265
 21
-37.00167217907
 31
0.0
  0
LINE
  5
308
330
1F
100
AcDbEntity
  8
1
  6
Continuous
 62
     4
100
AcDbLine
 10
221.413399244265
 20
-37.62667217907
 30
0.0
 11
222.788399244265
 21
-39.12667217907
 31
0.0
  0
LINE
  5
309
330
1F
100
AcDbEntity
  8
1
  6
Continuous
 62
     4
100
AcDbLine
 10
221.788399244265
 20
-43.25167217907
 30
0.0
 11
223.663399244265
 21
-42.25167217907
 31
0.0
  0
LINE
  5
30A
330
1F
100
AcDbEntity
  8
1
  6
Continuous
 62
     4
100
AcDbLine
 10
223.663399244265
 20
-42.25167217907
 30
0.0
 11
225.913399244265
 21
-40.12667217907
 31
0.0
  0
LINE
  5
30B
330
1F
100
AcDbEntity
  8
1
  6
Continuous
 62
     4
100
AcDbLine
 10
225.913399244265
 20
-40.12667217907
 30
0.0
 11
227.288399244265
 21
-38.25167217907
 31
0.0
  0
LINE
  5
30C
330
1F
100
AcDbEntity
  8
1
  6
Continuous
 62
     4
100
AcDbLine
 10
231.788399244265
 20
-44.12667217907
 30
0.0
 11
233.913399244265
 21
-42.87667217907
 31
0.0
  0
LINE
  5
30D
330
1F
100
AcDbEntity
  8
1
  6
Continuous
 62
     4
100
AcDbLine
 10
233.913399244265
 20
-42.87667217907
 30
0.0
 11
236.163399244265
 21
-41.00167217907
 31
0.0
  0
LINE
  5
30E
330
1F
100
AcDbEntity
  8
1
  6
Continuous
 62
     4
100
AcDbLine
 10
236.163399244265
 20
-41.00167217907
 30
0.0
 11
237.538399244265
 21
-39.12667217907
 31
0.0
  0
LINE
  5
30F
330
1F
100
AcDbEntity
  8
1
  6
Continuous
 62
     4
100
AcDbLine
 10
236.788399244265
 20
-37.25167217907
 30
0.0
 11
235.913399244265
 21
-36.37667217907
 31
0.0
  0
LINE
  5
310
330
1F
100
AcDbEntity
  8
1
  6
Continuous
 62
     4
100
AcDbLine
 10
235.288399244265
 20
-37.00167217907
 30
0.0
 11
236.163399244265
 21
-37.87667217907
 31
0.0
  0
LINE
  5
311
330
1F
100
AcDbEntity
  8
1
  6
Continuous
 62
     4
100
AcDbLine
 10
233.913399244265
 20
-38.50167217907
 30
0.0
 11
232.288399244265
 21
-37.25167217907
 31
0.0
  0
LINE
  5
312
330
1F
100
AcDbEntity
  8
1
  6
Continuous
 62
     4
100
AcDbLine
 10
231.163399244265
 20
-39.12667217907
 30
0.0
 11
233.163399244265
 21
-40.37667217907
 31
0.0
  0
ARC
  5
323
330
1F
100
AcDbEntity
  8
100
  6
Continuous
 62
     3
100
AcDbCircle
 10
-41.5
 20
103.5
 30
0.0
 40
2.5
100
AcDbArc
 50
180.0
 51
270.0
  0
ARC
  5
324
330
1F
100
AcDbEntity
  8
100
  6
Continuous
 62
     3
100
AcDbCircle
 10
-41.5
 20
103.808674427162
 30
0.0
 40
2.50000000000021
100
AcDbArc
 50
97.52891091592812
 51
180.0
  0
ARC
  5
325
330
1F
100
AcDbEntity
  8
100
  6
Continuous
 62
     3
100
AcDbCircle
 10
41.5
 20
103.5
 30
0.0
 40
2.5
100
AcDbArc
 50
270.0
 51
0.0
  0
ARC
  5
326
330
1F
100
AcDbEntity
  8
100
  6
Continuous
 62
     3
100
AcDbCircle
 10
41.5
 20
103.808674427162
 30
0.0
 40
2.5
100
AcDbArc
 50
0.0
 51
82.47108908407415
  0
ARC
  5
327
330
1F
100
AcDbEntity
  8
2
  6
PHANTOM
 62
     6
100
AcDbCircle
 10
61.5
 20
192.5
 30
0.0
 40
8.5
100
AcDbArc
 50
270.0
 51
90.0
  0
ARC
  5
328
330
1F
100
AcDbEntity
  8
2
  6
PHANTOM
 62
     6
100
AcDbCircle
 10
-61.5
 20
192.5
 30
0.0
 40
8.5
100
AcDbArc
 50
90.0
 51
270.0
  0
ARC
  5
329
330
1F
100
AcDbEntity
  8
2
  6
PHANTOM
 62
     6
100
AcDbCircle
 10
2.0030714164734
 20
179.5
 30
0.0
 40
18.57809412381955
100
AcDbArc
 50
326.5274974315814
 51
340.7622224414835
  0
ARC
  5
32A
330
1F
100
AcDbEntity
  8
100
  6
Continuous
 62
     3
100
AcDbCircle
 10
0.0
 20
-80.0
 30
0.0
 40
125.5
100
AcDbArc
 50
106.6997488802626
 51
111.9970615725638
  0
ARC
  5
32B
330
1F
100
AcDbEntity
  8
100
  6
Continuous
 62
     3
100
AcDbCircle
 10
0.0
 20
80.0
 30
0.0
 40
125.5000000000001
100
AcDbArc
 50
286.6997488802626
 51
291.9970615725639
  0
ARC
  5
32C
330
1F
100
AcDbEntity
  8
100
  6
Continuous
 62
     3
100
AcDbCircle
 10
-37.5
 20
44.995999935998
 30
0.0
 40
5.000000000000026
100
AcDbArc
 50
286.6997488802625
 51
0.0
  0
ARC
  5
32D
330
1F
100
AcDbEntity
  8
100
  6
Continuous
 62
     3
100
AcDbCircle
 10
37.5
 20
-44.995999935998
 30
0.0
 40
4.999999999999931
100
AcDbArc
 50
106.6997488802628
 51
180.0
  0
ARC
  5
32E
330
1F
100
AcDbEntity
  8
100
  6
Continuous
 62
     3
100
AcDbCircle
 10
48.8799549917962
 20
-41.0
 30
0.0
 40
5.0
100
AcDbArc
 50
90.0
 51
111.9970615725634
  0
ARC
  5
32F
330
1F
100
AcDbEntity
  8
100
  6
Continuous
 62
     3
100
AcDbCircle
 10
-48.879954991796
 20
41.0
 30
0.0
 40
5.0
100
AcDbArc
 50
270.0
 51
291.9970615725644
  0
ARC
  5
330
330
1F
100
AcDbEntity
  8
100
  6
Continuous
 62
     3
100
AcDbCircle
 10
0.0
 20
-80.0
 30
0.0
 40
125.5
100
AcDbArc
 50
68.00293842743606
 51
73.30025111973742
  0
ARC
  5
331
330
1F
100
AcDbEntity
  8
100
  6
Continuous
 62
     3
100
AcDbCircle
 10
0.0
 20
80.0
 30
0.0
 40
125.5
100
AcDbArc
 50
248.0029384274362
 51
253.3002511197373
  0
ARC
  5
332
330
1F
100
AcDbEntity
  8
100
  6
Continuous
 62
     3
100
AcDbCircle
 10
48.8799549917962
 20
41.0
 30
0.0
 40
5.000000000000078
100
AcDbArc
 50
248.002938427437
 51
270.0
  0
ARC
  5
333
330
1F
100
AcDbEntity
  8
100
  6
Continuous
 62
     3
100
AcDbCircle
 10
37.5
 20
44.995999935998
 30
0.0
 40
5.0
100
AcDbArc
 50
180.0
 51
253.3002511197375
  0
ARC
  5
334
330
1F
100
AcDbEntity
  8
100
  6
Continuous
 62
     3
100
AcDbCircle
 10
-37.5
 20
-44.9959999359978
 30
0.0
 40
5.0
100
AcDbArc
 50
0.0
 51
73.30025111973973
  0
ARC
  5
335
330
1F
100
AcDbEntity
  8
100
  6
Continuous
 62
     3
100
AcDbCircle
 10
-48.879954991796
 20
-41.0
 30
0.0
 40
4.999999999999986
100
AcDbArc
 50
68.00293842743662
 51
90.0
  0
ARC
  5
336
330
1F
100
AcDbEntity
  8
100
  6
Continuous
 62
     3
100
AcDbCircle
 10
-17.7463687912523
 20
-7.0
 30
0.0
 40
34.9999999999999
100
AcDbArc
 50
208.1284271114358
 51
270.0
  0
ARC
  5
337
330
1F
100
AcDbEntity
  8
100
  6
Continuous
 62
     3
100
AcDbCircle
 10
-4.6521739130435
 20
0.0
 30
0.0
 40
49.84782608695654
100
AcDbArc
 50
191.5726648229832
 51
208.1284271114356
  0
ARC
  5
338
330
1F
100
AcDbEntity
  8
100
  6
Continuous
 62
     3
100
AcDbCircle
 10
-17.7463687912523
 20
7.0
 30
0.0
 40
35.0
100
AcDbArc
 50
90.0
 51
151.8715728885643
  0
ARC
  5
339
330
1F
100
AcDbEntity
  8
100
  6
Continuous
 62
     3
100
AcDbCircle
 10
-4.6521739130435
 20
0.0
 30
0.0
 40
49.84782608695662
100
AcDbArc
 50
151.8715728885644
 51
168.4273351770168
  0
ARC
  5
33A
330
1F
100
AcDbEntity
  8
100
  6
Continuous
 62
     3
100
AcDbCircle
 10
4.6521739130435
 20
0.0
 30
0.0
 40
49.84782608695654
100
AcDbArc
 50
11.57266482298325
 51
28.12842711143581
  0
ARC
  5
33B
330
1F
100
AcDbEntity
  8
100
  6
Continuous
 62
     3
100
AcDbCircle
 10
17.7463687912521
 20
7.0
 30
0.0
 40
35.00000000000004
100
AcDbArc
 50
28.12842711143582
 51
90.0
  0
ARC
  5
33C
330
1F
100
AcDbEntity
  8
100
  6
Continuous
 62
     3
100
AcDbCircle
 10
4.6521739130435
 20
0.0
 30
0.0
 40
49.84782608695649
100
AcDbArc
 50
331.8715728885642
 51
348.4273351770165
  0
ARC
  5
33D
330
1F
100
AcDbEntity
  8
100
  6
Continuous
 62
     3
100
AcDbCircle
 10
17.7463687912521
 20
-7.0
 30
0.0
 40
35.0
100
AcDbArc
 50
270.0
 51
331.8715728885642
  0
ARC
  5
33E
330
1F
100
AcDbEntity
  8
100
  6
Continuous
 62
     3
100
AcDbCircle
 10
75.0000000000001
 20
267.158630371094
 30
0.0
 40
28.00000000000029
100
AcDbArc
 50
143.6471236698193
 51
205.6031254811122
  0
ARC
  5
33F
330
1F
100
AcDbEntity
  8
100
  6
Continuous
 62
     3
100
AcDbCircle
 10
35.0000000000001
 20
267.158630371094
 30
0.0
 40
28.00000000000027
100
AcDbArc
 50
335.0428593618519
 51
37.45269125030456
  0
ARC
  5
340
330
1F
100
AcDbEntity
  8
100
  6
Continuous
 62
     3
100
AcDbCircle
 10
30.5084381103517
 20
249.60107421875
 30
0.0
 40
19.99999999999992
100
AcDbArc
 50
342.2386046866798
 51
15.8362450542276
  0
ARC
  5
341
330
1F
100
AcDbEntity
  8
100
  6
Continuous
 62
     3
100
AcDbCircle
 10
79.5431060791017
 20
249.60107421875
 30
0.0
 40
19.99999999999988
100
AcDbArc
 50
163.3119024184111
 51
197.7613953133202
  0
ARC
  5
342
330
1F
100
AcDbEntity
  8
100
  6
Continuous
 62
     3
100
AcDbCircle
 10
61.5
 20
223.0
 30
0.0
 40
8.5
100
AcDbArc
 50
270.0
 51
90.0
  0
ARC
  5
343
330
1F
100
AcDbEntity
  8
100
  6
Continuous
 62
     3
100
AcDbCircle
 10
2.0030714164734
 20
210.0
 30
0.0
 40
18.57809412381955
100
AcDbArc
 50
326.5274974315814
 51
14.01764831640098
  0
ARC
  5
344
330
1F
100
AcDbEntity
  8
100
  6
Continuous
 62
     3
100
AcDbCircle
 10
55.0000000000001
 20
282.176574707031
 30
0.0
 40
3.000000000000233
100
AcDbArc
 50
42.0420632926643
 51
148.2364957121687
  0
ARC
  5
345
330
1F
100
AcDbEntity
  8
100
  6
Continuous
 62
     3
100
AcDbCircle
 10
0.0
 20
231.0
 30
0.0
 40
7.5
100
AcDbArc
 50
90.0
 51
160.5287793655093
  0
ARC
  5
346
330
1F
100
AcDbEntity
  8
100
  6
Continuous
 62
     3
100
AcDbCircle
 10
-61.5
 20
223.0
 30
0.0
 40
8.5
100
AcDbArc
 50
90.0
 51
270.0
  0
ARC
  5
347
330
1F
100
AcDbEntity
  8
2
  6
PHANTOM
 62
     6
100
AcDbCircle
 10
75.0000000000001
 20
236.658630371094
 30
0.0
 40
28.00000000000001
100
AcDbArc
 50
142.5473087496873
 51
205.6031254811123
  0
ARC
  5
348
330
1F
100
AcDbEntity
  8
2
  6
PHANTOM
 62
     6
100
AcDbCircle
 10
30.5084381103517
 20
219.10107421875
 30
0.0
 40
19.99999999999992
100
AcDbArc
 50
342.2386046866798
 51
15.8362450542276
  0
ARC
  5
349
330
1F
100
AcDbEntity
  8
2
  6
PHANTOM
 62
     6
100
AcDbCircle
 10
35.0000000000001
 20
236.658630371094
 30
0.0
 40
28.0000000000001
100
AcDbArc
 50
335.0428593618516
 51
37.45269125031251
  0
ARC
  5
34A
330
1F
100
AcDbEntity
  8
2
  6
PHANTOM
 62
     6
100
AcDbCircle
 10
79.5431060791017
 20
219.10107421875
 30
0.0
 40
20.00000000000007
100
AcDbArc
 50
163.3119024184113
 51
197.76139531332
  0
ARC
  5
34B
330
1F
100
AcDbEntity
  8
2
  6
PHANTOM
 62
     6
100
AcDbCircle
 10
55.0000000000001
 20
251.676574707031
 30
0.0
 40
3.00000000000009
100
AcDbArc
 50
31.76350428776574
 51
148.2364957122343
  0
ARC
  5
34C
330
1F
100
AcDbEntity
  8
100
  6
Continuous
 62
     3
100
AcDbCircle
 10
458.0
 20
77.0
 30
0.0
 40
5.000000000000052
100
AcDbArc
 50
345.2204500293147
 51
0.0
  0
ARC
  5
34D
330
1F
100
AcDbEntity
  8
100
  6
Continuous
 62
     3
100
AcDbCircle
 10
382.0
 20
77.0
 30
0.0
 40
5.0
100
AcDbArc
 50
180.0
 51
194.7795499706853
  0
ARC
  5
34E
330
1F
100
AcDbEntity
  8
100
  6
Continuous
 62
     3
100
AcDbCircle
 10
378.5
 20
103.5
 30
0.0
 40
2.5
100
AcDbArc
 50
180.0
 51
270.0
  0
ARC
  5
34F
330
1F
100
AcDbEntity
  8
100
  6
Continuous
 62
     3
100
AcDbCircle
 10
378.5
 20
103.808674427162
 30
0.0
 40
2.500000000000195
100
AcDbArc
 50
97.52891091592537
 51
180.0
  0
ARC
  5
350
330
1F
100
AcDbEntity
  8
100
  6
Continuous
 62
     3
100
AcDbCircle
 10
461.5
 20
103.5
 30
0.0
 40
2.5
100
AcDbArc
 50
270.0
 51
0.0
  0
ARC
  5
351
330
1F
100
AcDbEntity
  8
100
  6
Continuous
 62
     3
100
AcDbCircle
 10
461.5
 20
103.808674427162
 30
0.0
 40
2.5
100
AcDbArc
 50
0.0
 51
82.47108908407463
  0
ARC
  5
352
330
1F
100
AcDbEntity
  8
100
  6
Continuous
 62
     3
100
AcDbCircle
 10
440.0
 20
267.158630371094
 30
0.0
 40
27.99999999999972
100
AcDbArc
 50
143.6471236698185
 51
205.6031254811128
  0
ARC
  5
353
330
1F
100
AcDbEntity
  8
100
  6
Continuous
 62
     3
100
AcDbCircle
 10
400.0
 20
267.158630371094
 30
0.0
 40
28.00000000000037
100
AcDbArc
 50
335.042859361852
 51
36.3528763301786
  0
ARC
  5
354
330
1F
100
AcDbEntity
  8
100
  6
Continuous
 62
     3
100
AcDbCircle
 10
395.508438110352
 20
249.60107421875
 30
0.0
 40
19.99999999999999
100
AcDbArc
 50
342.2386046866798
 51
15.83624505422745
  0
ARC
  5
355
330
1F
100
AcDbEntity
  8
100
  6
Continuous
 62
     3
100
AcDbCircle
 10
444.543106079102
 20
249.60107421875
 30
0.0
 40
20.00000000000017
100
AcDbArc
 50
163.3119024184114
 51
197.7613953133201
  0
ARC
  5
356
330
1F
100
AcDbEntity
  8
100
  6
Continuous
 62
     3
100
AcDbCircle
 10
481.5
 20
223.0
 30
0.0
 40
8.5
100
AcDbArc
 50
270.0
 51
90.0
  0
ARC
  5
357
330
1F
100
AcDbEntity
  8
100
  6
Continuous
 62
     3
100
AcDbCircle
 10
422.003071416473
 20
210.0
 30
0.0
 40
18.57809412381987
100
AcDbArc
 50
326.527497431582
 51
14.01764831640053
  0
ARC
  5
358
330
1F
100
AcDbEntity
  8
100
  6
Continuous
 62
     3
100
AcDbCircle
 10
420.0
 20
282.176574707031
 30
0.0
 40
2.999999999999944
100
AcDbArc
 50
31.76350428781152
 51
148.2364957121616
  0
ARC
  5
359
330
1F
100
AcDbEntity
  8
100
  6
Continuous
 62
     3
100
AcDbCircle
 10
420.0
 20
231.0
 30
0.0
 40
7.499999999999649
100
AcDbArc
 50
131.810314895781
 51
160.5287793655082
  0
ARC
  5
35A
330
1F
100
AcDbEntity
  8
100
  6
Continuous
 62
     3
100
AcDbCircle
 10
358.5
 20
223.0
 30
0.0
 40
8.5
100
AcDbArc
 50
90.0
 51
270.0
  0
ARC
  5
35B
330
1F
100
AcDbEntity
  8
100
  6
Continuous
 62
     3
100
AcDbCircle
 10
-9.60877695223791
 20
455.028410620413
 30
0.0
 40
4.999999999999401
100
AcDbArc
 50
101.5476519890327
 51
211.6757055601352
  0
ARC
  5
35C
330
1F
100
AcDbEntity
  8
100
  6
Continuous
 62
     3
100
AcDbCircle
 10
-35.9234098207644
 20
439.835650250143
 30
0.0
 40
4.999999999999785
100
AcDbArc
 50
28.32429443986403
 51
138.4523480109726
  0
ARC
  5
35D
330
1F
100
AcDbEntity
  8
100
  6
Continuous
 62
     3
100
AcDbCircle
 10
-35.9234098207643
 20
376.164349749857
 30
0.0
 40
4.99999999999987
100
AcDbArc
 50
221.5476519890267
 51
331.6757055601354
  0
ARC
  5
35E
330
1F
100
AcDbEntity
  8
100
  6
Continuous
 62
     3
100
AcDbCircle
 10
-9.60877695223785
 20
360.971589379587
 30
0.0
 40
5.000000000000207
100
AcDbArc
 50
148.3242944398645
 51
258.4523480109689
  0
ARC
  5
35F
330
1F
100
AcDbEntity
  8
100
  6
Continuous
 62
     3
100
AcDbCircle
 10
-24.0549417322242
 20
417.815885718723
 30
0.0
 40
5.000000000000017
100
AcDbArc
 50
337.8015398933118
 51
28.324294439864
  0
ARC
  5
360
330
1F
100
AcDbEntity
  8
100
  6
Continuous
 62
     3
100
AcDbCircle
 10
3.52666447305327
 20
433.740133486022
 30
0.0
 40
5.000000000000211
100
AcDbArc
 50
211.6757055601347
 51
262.1984601066852
  0
ARC
  5
361
330
1F
100
AcDbEntity
  8
100
  6
Continuous
 62
     3
100
AcDbCircle
 10
-24.0549417322242
 20
398.184114281277
 30
0.0
 40
4.999999999999761
100
AcDbArc
 50
331.6757055601366
 51
22.19846010668953
  0
ARC
  5
362
330
1F
100
AcDbEntity
  8
100
  6
Continuous
 62
     3
100
AcDbCircle
 10
3.5266644730533
 20
382.259866513978
 30
0.0
 40
4.99999999999992
100
AcDbArc
 50
97.80153989331228
 51
148.3242944398745
  0
ARC
  5
363
330
1F
100
AcDbEntity
  8
100
  6
Continuous
 62
     3
100
AcDbCircle
 10
20.5282772591709
 20
423.924247767299
 30
0.0
 40
4.999999999999901
100
AcDbArc
 50
217.8015398933122
 51
268.3242944398701
  0
ARC
  5
364
330
1F
100
AcDbEntity
  8
100
  6
Continuous
 62
     3
100
AcDbCircle
 10
20.528277259171
 20
392.075752232701
 30
0.0
 40
4.999999999999905
100
AcDbArc
 50
91.67570556013212
 51
142.1984601066878
  0
ARC
  5
365
330
1F
100
AcDbEntity
  8
100
  6
Continuous
 62
     3
100
AcDbCircle
 10
45.5321867730022
 20
392.80723962973
 30
0.0
 40
5.000000000000685
100
AcDbArc
 50
341.547651989036
 51
91.67570556013104
  0
ARC
  5
366
330
1F
100
AcDbEntity
  8
100
  6
Continuous
 62
     3
100
AcDbCircle
 10
45.5321867730022
 20
423.19276037027
 30
0.0
 40
4.999999999999845
100
AcDbArc
 50
268.324294439869
 51
18.45234801096731
  0
ARC
  5
367
330
1F
100
AcDbEntity
  8
100
  6
Continuous
 62
     3
100
AcDbCircle
 10
61.5
 20
408.0
 30
0.0
 40
14.99999999999961
100
AcDbArc
 50
113.7307424792842
 51
246.269257520716
  0
ARC
  5
368
330
1F
100
AcDbEntity
  8
100
  6
Continuous
 62
     3
100
AcDbCircle
 10
53.4512195121951
 20
426.308935869109
 30
0.0
 40
5.000000000000773
100
AcDbArc
 50
293.7307424792791
 51
18.90814830920455
  0
ARC
  5
369
330
1F
100
AcDbEntity
  8
100
  6
Continuous
 62
     3
100
AcDbCircle
 10
53.4512195121951
 20
389.691064130891
 30
0.0
 40
4.999999999999903
100
AcDbArc
 50
341.0918516907921
 51
66.2692575207203
  0
ARC
  5
36A
330
1F
100
AcDbEntity
  8
100
  6
Continuous
 62
     3
100
AcDbCircle
 10
0.0
 20
408.0
 30
0.0
 40
61.49999999999988
100
AcDbArc
 50
4.59568006057451
 51
90.0
  0
ARC
  5
36B
330
1F
100
AcDbEntity
  8
100
  6
Continuous
 62
     3
100
AcDbCircle
 10
0.0
 20
408.0
 30
0.0
 40
61.5
100
AcDbArc
 50
90.0
 51
355.4043199394255
  0
ARC
  5
36C
330
1F
100
AcDbEntity
  8
100
  6
Continuous
 62
     3
100
AcDbCircle
 10
0.0
 20
408.0
 30
0.0
 40
44.00000000000004
100
AcDbArc
 50
13.49921116247128
 51
106.5007888375288
  0
ARC
  5
36D
330
1F
100
AcDbEntity
  8
100
  6
Continuous
 62
     3
100
AcDbCircle
 10
0.0
 20
408.0
 30
0.0
 40
44.00000000000007
100
AcDbArc
 50
133.4992111624713
 51
226.5007888375288
  0
ARC
  5
36E
330
1F
100
AcDbEntity
  8
100
  6
Continuous
 62
     3
100
AcDbCircle
 10
0.0
 20
408.0
 30
0.0
 40
43.99999999999996
100
AcDbArc
 50
253.4992111624713
 51
346.5007888375287
  0
ARC
  5
36F
330
1F
100
AcDbEntity
  8
2
  6
PHANTOM
 62
     6
100
AcDbCircle
 10
0.0
 20
200.5
 30
0.0
 40
7.5
100
AcDbArc
 50
90.0
 51
160.5287793655093
  0
ARC
  5
370
330
1F
100
AcDbEntity
  8
100
  6
Continuous
 62
     3
100
AcDbCircle
 10
0.0
 20
408.0
 30
0.0
 40
52.99999999999986
100
AcDbArc
 50
18.45234801097155
 51
90.0
  0
ARC
  5
371
330
1F
100
AcDbEntity
  8
100
  6
Continuous
 62
     3
100
AcDbCircle
 10
0.0
 20
408.0
 30
0.0
 40
53.00000000000075
100
AcDbArc
 50
258.4523480109717
 51
341.5476519890288
  0
ARC
  5
372
330
1F
100
AcDbEntity
  8
100
  6
Continuous
 62
     3
100
AcDbCircle
 10
0.0
 20
408.0
 30
0.0
 40
53.00000000000001
100
AcDbArc
 50
138.4523480109719
 51
221.5476519890281
  0
ARC
  5
373
330
1F
100
AcDbEntity
  8
100
  6
Continuous
 62
     3
100
AcDbCircle
 10
0.0
 20
408.0
 30
0.0
 40
53.0
100
AcDbArc
 50
90.0
 51
101.5476519890285
  0
ARC
  5
374
330
1F
100
AcDbEntity
  8
100
  6
Continuous
 62
     3
100
AcDbCircle
 10
-2.0030714164734
 20
210.0
 30
0.0
 40
18.57809412381954
100
AcDbArc
 50
165.982351683599
 51
213.4725025684187
  0
ARC
  5
375
330
1F
100
AcDbEntity
  8
2
  6
PHANTOM
 62
     6
100
AcDbCircle
 10
-2.0030714164734
 20
179.5
 30
0.0
 40
18.57809412381976
100
AcDbArc
 50
199.2377775585165
 51
213.4725025684187
  0
ARC
  5
376
330
1F
100
AcDbEntity
  8
100
  6
Continuous
 62
     3
100
AcDbCircle
 10
417.996928583527
 20
210.0
 30
0.0
 40
18.57809412382012
100
AcDbArc
 50
165.9823516835995
 51
213.472502568418
  0
CIRCLE
  5
377
330
1F
100
AcDbEntity
  8
2
  6
CENTER
 62
     1
100
AcDbCircle
 10
420.0
 20
0.0
 30
0.0
 40
70.0
  0
CIRCLE
  5
378
330
1F
100
AcDbEntity
  8
100
  6
Continuous
 62
     3
100
AcDbCircle
 10
420.0
 20
0.0
 30
0.0
 40
30.0
  0
CIRCLE
  5
379
330
1F
100
AcDbEntity
  8
100
  6
Continuous
 62
     3
100
AcDbCircle
 10
370.502563476563
 20
49.4974365234375
 30
0.0
 40
9.5
  0
CIRCLE
  5
37A
330
1F
100
AcDbEntity
  8
100
  6
Continuous
 62
     3
100
AcDbCircle
 10
469.497436523438
 20
49.4974365234375
 30
0.0
 40
9.5
  0
CIRCLE
  5
37B
330
1F
100
AcDbEntity
  8
100
  6
Continuous
 62
     3
100
AcDbCircle
 10
469.497436523438
 20
-49.4974975585938
 30
0.0
 40
9.5
  0
CIRCLE
  5
37C
330
1F
100
AcDbEntity
  8
100
  6
Continuous
 62
     3
100
AcDbCircle
 10
370.502563476563
 20
-49.4974975585938
 30
0.0
 40
9.5
  0
CIRCLE
  5
37D
330
1F
100
AcDbEntity
  8
100
  6
Continuous
 62
     3
100
AcDbCircle
 10
420.000033371905
 20
0.00001782721841
 30
0.0
 40
48.5
  0
CIRCLE
  5
37E
330
1F
100
AcDbEntity
  8
100
  6
Continuous
 62
     3
100
AcDbCircle
 10
0.0
 20
408.0
 30
0.0
 40
70.0
  0
CIRCLE
  5
37F
330
1F
100
AcDbEntity
  8
100
  6
Continuous
 62
     3
100
AcDbCircle
 10
0.0
 20
408.0
 30
0.0
 40
20.9806049618505
  0
CIRCLE
  5
380
330
1F
100
AcDbEntity
  8
100
  6
Continuous
 62
     3
100
AcDbCircle
 10
55.0000000000001
 20
408.0
 30
0.0
 40
8.0
  0
CIRCLE
  5
381
330
1F
100
AcDbEntity
  8
100
  6
Continuous
 62
     3
100
AcDbCircle
 10
0.0
 20
408.0
 30
0.0
 40
13.5
  0
CIRCLE
  5
382
330
1F
100
AcDbEntity
  8
100
  6
Continuous
 62
     3
100
AcDbCircle
 10
0.0
 20
408.0
 30
0.0
 40
7.5
  0
CIRCLE
  5
383
330
1F
100
AcDbEntity
  8
100
  6
Continuous
 62
     3
100
AcDbCircle
 10
420.0
 20
0.0
 30
0.0
 40
87.0
  0
LWPOLYLINE
  5
384
330
1F
100
AcDbEntity
  8
100
  6
Continuous
 62
     3
100
AcDbPolyline
 90
       10
 70
     0
 43
0.0
 10
11.2499923706055
 20
22.375
 10
3.12499237060547
 20
22.375
 10
1.87499237060547
 20
13.625
 10
4.99999237060547
 20
14.875
 10
8.74999237060547
 20
14.875
 10
11.8749923706055
 20
12.375
 10
11.8749923706055
 20
6.125
 10
8.74999237060547
 20
2.99999976158142
 10
4.99999237060547
 20
2.99999976158142
 10
1.87499237060547
 20
6.125
  0
LWPOLYLINE
  5
385
330
1F
100
AcDbEntity
  8
100
  6
Continuous
 62
     3
100
AcDbPolyline
 90
       12
 70
     0
 43
0.0
 10
-11.8750076293945
 20
11.75
 10
-8.75000762939453
 20
14.875
 10
-5.00000762939453
 20
14.875
 10
-1.87500762939453
 20
11.75
 10
-1.87500762939453
 20
6.125
 10
-5.00000762939453
 20
2.99999976158142
 10
-8.75000762939453
 20
2.99999976158142
 10
-11.8750076293945
 20
6.125
 10
-11.8750076293945
 20
19.875
 10
-8.75000762939453
 20
23.0
 10
-5.00000762939453
 20
23.0
 10
-1.87500762939453
 20
19.875
  0
LWPOLYLINE
  5
386
330
1F
100
AcDbEntity
  8
100
  6
Continuous
 62
     3
100
AcDbPolyline
 90
       17
 70
     1
 43
0.0
 10
-26.1884413665168
 20
0.0
 10
-26.1884413665168
 20
0.0
 10
26.1884413665166
 20
0.0
 42
-0.74205596918085
 10
26.5212614842519
 20
-1.09923017660276
 10
14.4161237256096
 20
-9.16932201569737
 42
-0.79323030492319
 10
13.9188697656064
 20
-8.70310441267929
 10
16.6919433912124
 20
-3.90000000000009
 42
0.57735026918953
 10
16.1723281489419
 20
-2.99999999999998
 10
-7.44203120500288
 20
-3.0
 42
0.26794919243099
 10
-7.96164644727355
 20
-3.29999999999995
 10
-11.6566881700874
 20
-9.70000000000005
 42
-0.26794919243058
 10
-12.176303412358
 20
-10.0
 10
-29.7906627663028
 20
-9.99999999999996
 42
-0.57735026918973
 10
-30.3102780085735
 20
-9.09999999999991
 10
-26.7884413665167
 20
-3.0
 10
-26.7884413665167
 20
-0.59999999999991
 42
-0.41421356237309
 10
-26.1884413665168
 20
0.0
  0
LWPOLYLINE
  5
387
330
1F
100
AcDbEntity
  8
100
  6
Continuous
 62
     3
100
AcDbPolyline
 90
        2
 70
     0
 43
0.0
 10
-7.07106781186548
 20
233.5
 42
0.0683865001321
 10
-7.48331477354802
 20
231.5
  0
LWPOLYLINE
  5
388
330
1F
100
AcDbEntity
  8
100
  6
Continuous
 62
     3
100
AcDbPolyline
 90
        3
 70
     0
 43
0.0
 10
7.48331477354782
 20
231.5
 42
0.06838650013199
 10
7.0710678118654
 20
233.5
 42
0.31783724519578
 10
0.0
 20
238.4999999999999
  0
LWPOLYLINE
  5
389
330
1F
100
AcDbEntity
  8
100
  6
Continuous
 62
     3
100
AcDbPolyline
 90
        2
 70
     0
 43
0.0
 10
445.0
 20
108.511151495127
 10
445.0
 20
128.0
  0
LWPOLYLINE
  5
38A
330
1F
100
AcDbEntity
  8
100
  6
Continuous
 62
     3
100
AcDbPolyline
 90
        2
 70
     0
 43
0.0
 10
395.0
 20
108.511151495126
 10
395.0
 20
128.0
  0
LWPOLYLINE
  5
38B
330
1F
100
AcDbEntity
  8
100
  6
Continuous
 62
     3
100
AcDbPolyline
 90
        2
 70
     0
 43
0.0
 10
412.928932188135
 20
233.5
 42
0.06838650013208
 10
412.5166852264525
 20
231.5
  0
LWPOLYLINE
  5
38C
330
1F
100
AcDbEntity
  8
100
  6
Continuous
 62
     3
100
AcDbPolyline
 90
        3
 70
     0
 43
0.0
 10
427.483314773548
 20
231.5
 42
0.06838650013207
 10
427.0710678118656
 20
233.4999999999999
 42
0.12596795110235
 10
425.0000000000006
 20
236.5901699437496
  0
LWPOLYLINE
  5
38D
330
1F
100
AcDbEntity
  8
100
  6
Continuous
 62
     3
100
AcDbPolyline
 90
        8
 70
     1
 43
0.0
 10
4.90747728811182
 20
416.5
 10
4.90747728811182
 20
416.5
 10
9.81495457622364
 20
408.0
 10
4.90747728811182
 20
399.5
 10
-4.90747728811182
 20
399.5
 10
-9.81495457622364
 20
408.0
 10
-4.90747728811182
 20
416.5
 10
4.90747728811182
 20
416.5
  0
LWPOLYLINE
  5
38E
330
1F
100
AcDbEntity
  8
100
  6
Continuous
 62
     3
100
AcDbPolyline
 90
        2
 70
     0
 43
0.0
 10
44.0
 20
103.5
 10
44.0
 20
103.808674427162
  0
LWPOLYLINE
  5
38F
330
1F
100
AcDbEntity
  8
2
  6
PHANTOM
 62
     6
100
AcDbPolyline
 90
        3
 70
     0
 43
0.0
 10
7.48331477354789
 20
201.0
 42
0.06838650013199
 10
7.07106781186547
 20
203.0
 42
0.31783724519578
 10
0.0
 20
208.0
  0
LWPOLYLINE
  5
390
330
1F
100
AcDbEntity
  8
2
  6
PHANTOM
 62
     6
100
AcDbPolyline
 90
        2
 70
     0
 43
0.0
 10
-7.07106781186548
 20
203.0
 42
0.0683865001321
 10
-7.48331477354802
 20
201.0
  0
LEADER
  5
391
330
1F
100
AcDbEntity
  8
1
  6
Continuous
 62
     4
100
AcDbLeader
  3
Standard
 71
     0
 76
     3
 10
24.0
 20
-197.1479959956
 30
0.0
 10
46.6178258844552
 20
-222.443654969724
 30
0.0
 10
96.847430966255
 20
-222.443654969724
 30
0.0
  0
LEADER
  5
392
330
1F
100
AcDbEntity
  8
1
  6
Continuous
 62
     4
100
AcDbLeader
  3
Standard
 71
     0
 76
     3
 10
105.0
 20
0.0
 30
0.0
 10
144.987485431944
 20
-50.988995642788
 30
0.0
 10
282.149036540998
 20
-50.988995642788
 30
0.0
  0
ENDSEC
  0
SECTION
  2
OBJECTS
  0
DICTIONARY
  5
C
330
0
100
AcDbDictionary
281
     1
  3
ACAD_GROUP
350
D
  3
ACAD_LAYOUT
350
1A
  3
ACAD_MATERIAL
350
3B
  3
ACAD_MLEADERSTYLE
350
395
  3
ACAD_MLINESTYLE
350
17
  3
ACAD_PLOTSETTINGS
350
19
  3
ACAD_PLOTSTYLENAME
350
E
  3
ACAD_VISUALSTYLE
350
2A
  3
AcDbVariableDictionary
350
393
  0
DICTIONARY
  5
D
102
{ACAD_REACTORS
330
C
102
}
330
C
100
AcDbDictionary
281
     1
  0
DICTIONARY
  5
1A
102
{ACAD_REACTORS
330
C
102
}
330
C
100
AcDbDictionary
281
     1
  3
Layout1
350
1E
  3
Layout2
350
26
  3
Model
350
22
  0
DICTIONARY
  5
3B
102
{ACAD_REACTORS
330
C
102
}
330
C
100
AcDbDictionary
281
     1
  3
ByBlock
350
3D
  3
ByLayer
350
3C
  3
Global
350
3E
  0
DICTIONARY
  5
395
102
{ACAD_REACTORS
330
C
102
}
330
C
100
AcDbDictionary
281
     1
  0
DICTIONARY
  5
17
102
{ACAD_REACTORS
330
C
102
}
330
C
100
AcDbDictionary
281
     1
  3
Standard
350
18
  0
DICTIONARY
  5
19
102
{ACAD_REACTORS
330
C
102
}
330
C
100
AcDbDictionary
281
     1
  0
ACDBDICTIONARYWDFLT
  5
E
102
{ACAD_REACTORS
330
C
102
}
330
C
100
AcDbDictionary
281
     1
  3
Normal
350
F
100
AcDbDictionaryWithDefault
340
F
  0
DICTIONARY
  5
2A
102
{ACAD_REACTORS
330
C
102
}
330
C
100
AcDbDictionary
281
     1
  3
2dWireframe
350
2F
  3
3D Hidden
350
31
  3
3dWireframe
350
30
  3
Basic
350
32
  3
Brighten
350
36
  3
ColorChange
350
3A
  3
Conceptual
350
34
  3
Dim
350
35
  3
Facepattern
350
39
  3
Flat
350
2B
  3
FlatWithEdges
350
2C
  3
Gouraud
350
2D
  3
GouraudWithEdges
350
2E
  3
Linepattern
350
38
  3
Realistic
350
33
  3
Thicken
350
37
  0
DICTIONARY
  5
393
102
{ACAD_REACTORS
330
C
102
}
330
C
100
AcDbDictionary
281
     1
  3
DIMASSOC
350
396
  3
HIDETEXT
350
397
  0
LAYOUT
  5
1E
102
{ACAD_REACTORS
330
1A
102
}
330
1A
100
AcDbPlotSettings
  1

  2
none_device
  4

  6

 40
0.0
 41
0.0
 42
0.0
 43
0.0
 44
0.0
 45
0.0
 46
0.0
 47
0.0
 48
0.0
 49
0.0
140
0.0
141
0.0
142
1.0
143
1.0
 70
   688
 72
     0
 73
     0
 74
     5
  7

 75
    16
147
1.0
148
0.0
149
0.0
100
AcDbLayout
  1
Layout1
 70
     1
 71
     1
 10
0.0
 20
0.0
 11
12.0
 21
9.0
 12
0.0
 22
0.0
 32
0.0
 14
1.00000000000000E+20
 24
1.00000000000000E+20
 34
1.00000000000000E+20
 15
-1.00000000000000E+20
 25
-1.00000000000000E+20
 35
-1.00000000000000E+20
146
0.0
 13
0.0
 23
0.0
 33
0.0
 16
1.0
 26
0.0
 36
0.0
 17
0.0
 27
1.0
 37
0.0
 76
     0
330
1B
  0
LAYOUT
  5
26
102
{ACAD_REACTORS
330
1A
102
}
330
1A
100
AcDbPlotSettings
  1

  2
none_device
  4

  6

 40
0.0
 41
0.0
 42
0.0
 43
0.0
 44
0.0
 45
0.0
 46
0.0
 47
0.0
 48
0.0
 49
0.0
140
0.0
141
0.0
142
1.0
143
1.0
 70
   688
 72
     0
 73
     0
 74
     5
  7

 75
    16
147
1.0
148
0.0
149
0.0
100
AcDbLayout
  1
Layout2
 70
     1
 71
     2
 10
0.0
 20
0.0
 11
0.0
 21
0.0
 12
0.0
 22
0.0
 32
0.0
 14
0.0
 24
0.0
 34
0.0
 15
0.0
 25
0.0
 35
0.0
146
0.0
 13
0.0
 23
0.0
 33
0.0
 16
1.0
 26
0.0
 36
0.0
 17
0.0
 27
1.0
 37
0.0
 76
     0
330
23
  0
LAYOUT
  5
22
102
{ACAD_REACTORS
330
1A
102
}
330
1A
100
AcDbPlotSettings
  1

  2
none_device
  4

  6

 40
0.0
 41
0.0
 42
0.0
 43
0.0
 44
0.0
 45
0.0
 46
0.0
 47
0.0
 48
0.0
 49
0.0
140
0.0
141
0.0
142
1.0
143
1.0
 70
  1712
 72
     0
 73
     0
 74
     0
  7

 75
     0
147
1.0
148
0.0
149
0.0
100
AcDbLayout
  1
Model
 70
     1
 71
     0
 10
0.0
 20
0.0
 11
12.0
 21
9.0
 12
0.0
 22
0.0
 32
0.0
 14
-117.0
 24
-237.312883564523
 34
0.0
 15
614.00583153782
 25
495.0
 35
0.0
146
0.0
 13
0.0
 23
0.0
 33
0.0
 16
1.0
 26
0.0
 36
0.0
 17
0.0
 27
1.0
 37
0.0
 76
     0
330
1F
331
29
  0
MATERIAL
  5
3D
102
{ACAD_REACTORS
330
3B
102
}
102
{ACAD_XDICTIONARY
360
3BA
102
}
330
3B
100
AcDbMaterial
  1
ByBlock
  0
MATERIAL
  5
3C
102
{ACAD_REACTORS
330
3B
102
}
102
{ACAD_XDICTIONARY
360
3B8
102
}
330
3B
100
AcDbMaterial
  1
ByLayer
  0
MATERIAL
  5
3E
102
{ACAD_REACTORS
330
3B
102
}
102
{ACAD_XDICTIONARY
360
3BC
102
}
330
3B
100
AcDbMaterial
  1
Global
  0
MLINESTYLE
  5
18
102
{ACAD_REACTORS
330
17
102
}
330
17
100
AcDbMlineStyle
  2
Standard
 70
     0
  3

 62
   256
 51
90.0
 52
90.0
 71
     2
 49
0.5
 62
   256
  6
BYLAYER
 49
-0.5
 62
   256
  6
BYLAYER
  0
ACDBPLACEHOLDER
  5
F
102
{ACAD_REACTORS
330
E
102
}
330
E
  0
VISUALSTYLE
  5
2F
102
{ACAD_REACTORS
330
2A
102
}
102
{ACAD_XDICTIONARY
360
3A0
102
}
330
2A
100
AcDbVisualStyle
  2
2dWireframe
 70
     4
 71
     0
 72
     2
 73
     0
 90
        0
 40
-0.6
 41
-30.0
 62
     5
 63
     7
 74
     1
 91
        4
 64
     7
 65
   257
 75
     1
175
     1
 42
1.0
 92
        0
 66
   257
 43
1.0
 76
     1
 77
     6
 78
     2
 67
     7
 79
     5
170
     0
171
     0
290
     0
174
     0
 93
        1
 44
0.0
173
     0
291
     0
 45
0.0
1001
ACAD
1000
AcDbSavedByObjectVersion
1070
     0
  0
VISUALSTYLE
  5
31
102
{ACAD_REACTORS
330
2A
102
}
102
{ACAD_XDICTIONARY
360
3A4
102
}
330
2A
100
AcDbVisualStyle
  2
3D Hidden
 70
     6
 71
     1
 72
     2
 73
     2
 90
        0
 40
-0.6
 41
-30.0
 62
     5
 63
     7
 74
     2
 91
        2
 64
     7
 65
   257
 75
     2
175
     1
 42
40.0
 92
        0
 66
   257
 43
1.0
 76
     1
 77
     6
 78
     2
 67
     7
 79
     3
170
     0
171
     0
290
     0
174
     0
 93
        1
 44
0.0
173
     0
291
     0
 45
0.0
1001
ACAD
1000
AcDbSavedByObjectVersion
1070
     0
  0
VISUALSTYLE
  5
30
102
{ACAD_REACTORS
330
2A
102
}
102
{ACAD_XDICTIONARY
360
3A2
102
}
330
2A
100
AcDbVisualStyle
  2
3dWireframe
 70
     5
 71
     0
 72
     2
 73
     0
 90
        0
 40
-0.6
 41
-30.0
 62
     5
 63
     7
 74
     1
 91
        4
 64
     7
 65
   257
 75
     1
175
     1
 42
1.0
 92
        0
 66
   257
 43
1.0
 76
     1
 77
     6
 78
     2
 67
     7
 79
     5
170
     0
171
     0
290
     0
174
     0
 93
        1
 44
0.0
173
     0
291
     0
 45
0.0
1001
ACAD
1000
AcDbSavedByObjectVersion
1070
     0
  0
VISUALSTYLE
  5
32
102
{ACAD_REACTORS
330
2A
102
}
102
{ACAD_XDICTIONARY
360
3A6
102
}
330
2A
100
AcDbVisualStyle
  2
Basic
 70
     7
 71
     1
 72
     0
 73
     1
 90
        0
 40
-0.6
 41
-30.0
 62
     5
 63
     7
 74
     0
 91
        4
 64
     7
 65
   257
 75
     1
175
     1
 42
1.0
 92
        8
 66
     7
 43
1.0
 76
     1
 77
     6
 78
     2
 67
     7
 79
     5
170
     0
171
     0
290
     0
174
     0
 93
        1
 44
0.0
173
     0
291
     1
 45
0.0
1001
ACAD
1000
AcDbSavedByObjectVersion
1070
     0
  0
VISUALSTYLE
  5
36
102
{ACAD_REACTORS
330
2A
102
}
102
{ACAD_XDICTIONARY
360
3AE
102
}
330
2A
100
AcDbVisualStyle
  2
Brighten
 70
    12
 71
     2
 72
     2
 73
     0
 90
        0
 40
-0.6
 41
-30.0
 62
     5
 63
     7
 74
     1
 91
        4
 64
     7
 65
   257
 75
     1
175
     1
 42
1.0
 92
        8
 66
     7
 43
1.0
 76
     1
 77
     6
 78
     2
 67
     7
 79
     5
170
     0
171
     0
290
     0
174
     0
 93
        1
 44
50.0
173
     0
291
     1
 45
0.0
1001
ACAD
1000
AcDbSavedByObjectVersion
1070
     0
  0
VISUALSTYLE
  5
3A
102
{ACAD_REACTORS
330
2A
102
}
102
{ACAD_XDICTIONARY
360
3B6
102
}
330
2A
100
AcDbVisualStyle
  2
ColorChange
 70
    16
 71
     2
 72
     2
 73
     3
 90
        0
 40
-0.6
 41
-30.0
 62
     5
 63
     8
 74
     1
 91
        4
 64
     7
 65
   257
 75
     1
175
     1
 42
1.0
 92
        8
 66
     8
 43
1.0
 76
     1
 77
     6
 78
     2
 67
     7
 79
     5
170
     0
171
     0
290
     0
174
     0
 93
        1
 44
0.0
173
     0
291
     1
 45
0.0
1001
ACAD
1000
AcDbSavedByObjectVersion
1070
     0
  0
VISUALSTYLE
  5
34
102
{ACAD_REACTORS
330
2A
102
}
102
{ACAD_XDICTIONARY
360
3AA
102
}
330
2A
100
AcDbVisualStyle
  2
Conceptual
 70
     9
 71
     3
 72
     2
 73
     0
 90
        0
 40
-0.6
 41
-30.0
 62
     5
 63
     7
 74
     2
 91
        2
 64
     7
 65
   257
 75
     1
175
     1
 42
40.0
 92
        8
 66
     7
 43
1.0
 76
     1
 77
     6
 78
     2
 67
     7
 79
     3
170
     0
171
     0
290
     0
174
     0
 93
        1
 44
0.0
173
     0
291
     0
 45
0.0
1001
ACAD
1000
AcDbSavedByObjectVersion
1070
     0
  0
VISUALSTYLE
  5
35
102
{ACAD_REACTORS
330
2A
102
}
102
{ACAD_XDICTIONARY
360
3AC
102
}
330
2A
100
AcDbVisualStyle
  2
Dim
 70
    11
 71
     2
 72
     2
 73
     0
 90
        0
 40
-0.6
 41
-30.0
 62
     5
 63
     7
 74
     1
 91
        4
 64
     7
 65
   257
 75
     1
175
     1
 42
1.0
 92
        8
 66
     7
 43
1.0
 76
     1
 77
     6
 78
     2
 67
     7
 79
     5
170
     0
171
     0
290
     0
174
     0
 93
        1
 44
-50.0
173
     0
291
     1
 45
0.0
1001
ACAD
1000
AcDbSavedByObjectVersion
1070
     0
  0
VISUALSTYLE
  5
39
102
{ACAD_REACTORS
330
2A
102
}
102
{ACAD_XDICTIONARY
360
3B4
102
}
330
2A
100
AcDbVisualStyle
  2
Facepattern
 70
    15
 71
     2
 72
     2
 73
     0
 90
        0
 40
-0.6
 41
-30.0
 62
     5
 63
     7
 74
     1
 91
        4
 64
     7
 65
   257
 75
     1
175
     1
 42
1.0
 92
        8
 66
     7
 43
1.0
 76
     1
 77
     6
 78
     2
 67
     7
 79
     5
170
     0
171
     0
290
     0
174
     0
 93
        1
 44
0.0
173
     0
291
     1
 45
0.0
1001
ACAD
1000
AcDbSavedByObjectVersion
1070
     0
  0
VISUALSTYLE
  5
2B
102
{ACAD_REACTORS
330
2A
102
}
102
{ACAD_XDICTIONARY
360
398
102
}
330
2A
100
AcDbVisualStyle
  2
Flat
 70
     0
 71
     2
 72
     1
 73
     1
 90
        2
 40
-0.6
 41
30.0
 62
     5
 63
     7
 74
     0
 91
        4
 64
     7
 65
   257
 75
     1
175
     1
 42
1.0
 92
        8
 66
     7
 43
1.0
 76
     1
 77
     6
 78
     2
 67
     7
 79
     5
170
     0
171
     0
290
     0
174
     0
 93
       13
 44
0.0
173
     0
291
     1
 45
0.0
1001
ACAD
1000
AcDbSavedByObjectVersion
1070
     0
  0
VISUALSTYLE
  5
2C
102
{ACAD_REACTORS
330
2A
102
}
102
{ACAD_XDICTIONARY
360
39A
102
}
330
2A
100
AcDbVisualStyle
  2
FlatWithEdges
 70
     1
 71
     2
 72
     1
 73
     1
 90
        2
 40
-0.6
 41
30.0
 62
     5
 63
     7
 74
     1
 91
        4
 64
     7
 65
   257
 75
     1
175
     1
 42
1.0
 92
        0
 66
   257
 43
1.0
 76
     1
 77
     6
 78
     2
 67
     7
 79
     5
170
     0
171
     0
290
     0
174
     0
 93
       13
 44
0.0
173
     0
291
     1
 45
0.0
1001
ACAD
1000
AcDbSavedByObjectVersion
1070
     0
  0
VISUALSTYLE
  5
2D
102
{ACAD_REACTORS
330
2A
102
}
102
{ACAD_XDICTIONARY
360
39C
102
}
330
2A
100
AcDbVisualStyle
  2
Gouraud
 70
     2
 71
     2
 72
     2
 73
     1
 90
        2
 40
-0.6
 41
30.0
 62
     5
 63
     7
 74
     0
 91
        4
 64
     7
 65
   257
 75
     1
175
     1
 42
1.0
 92
        0
 66
     7
 43
1.0
 76
     1
 77
     6
 78
     2
 67
     7
 79
     5
170
     0
171
     0
290
     0
174
     0
 93
       13
 44
0.0
173
     0
291
     1
 45
0.0
1001
ACAD
1000
AcDbSavedByObjectVersion
1070
     0
  0
VISUALSTYLE
  5
2E
102
{ACAD_REACTORS
330
2A
102
}
102
{ACAD_XDICTIONARY
360
39E
102
}
330
2A
100
AcDbVisualStyle
  2
GouraudWithEdges
 70
     3
 71
     2
 72
     2
 73
     1
 90
        2
 40
-0.6
 41
30.0
 62
     5
 63
     7
 74
     1
 91
        4
 64
     7
 65
   257
 75
     1
175
     1
 42
1.0
 92
        0
 66
   257
 43
1.0
 76
     1
 77
     6
 78
     2
 67
     7
 79
     5
170
     0
171
     0
290
     0
174
     0
 93
       13
 44
0.0
173
     0
291
     1
 45
0.0
1001
ACAD
1000
AcDbSavedByObjectVersion
1070
     0
  0
VISUALSTYLE
  5
38
102
{ACAD_REACTORS
330
2A
102
}
102
{ACAD_XDICTIONARY
360
3B2
102
}
330
2A
100
AcDbVisualStyle
  2
Linepattern
 70
    14
 71
     2
 72
     2
 73
     0
 90
        0
 40
-0.6
 41
-30.0
 62
     5
 63
     7
 74
     1
 91
        4
 64
     7
 65
   257
 75
     7
175
     7
 42
1.0
 92
        8
 66
     7
 43
1.0
 76
     1
 77
     6
 78
     2
 67
     7
 79
     5
170
     0
171
     0
290
     0
174
     0
 93
        1
 44
0.0
173
     0
291
     1
 45
0.0
1001
ACAD
1000
AcDbSavedByObjectVersion
1070
     0
  0
VISUALSTYLE
  5
33
102
{ACAD_REACTORS
330
2A
102
}
102
{ACAD_XDICTIONARY
360
3A8
102
}
330
2A
100
AcDbVisualStyle
  2
Realistic
 70
     8
 71
     2
 72
     2
 73
     0
 90
        0
 40
-0.6
 41
-30.0
 62
     5
 63
     7
 74
     1
 91
        0
 64
     7
 65
   257
 75
     1
175
     1
 42
1.0
 92
        8
 66
     8
 43
1.0
 76
     1
 77
     6
 78
     2
 67
     7
 79
     5
170
     0
171
     0
290
     0
174
     0
 93
       13
 44
0.0
173
     0
291
     0
 45
0.0
1001
ACAD
1000
AcDbSavedByObjectVersion
1070
     0
  0
VISUALSTYLE
  5
37
102
{ACAD_REACTORS
330
2A
102
}
102
{ACAD_XDICTIONARY
360
3B0
102
}
330
2A
100
AcDbVisualStyle
  2
Thicken
 70
    13
 71
     2
 72
     2
 73
     0
 90
        0
 40
-0.6
 41
-30.0
 62
     5
 63
     7
 74
     1
 91
        4
 64
     7
 65
   257
 75
     1
175
     1
 42
1.0
 92
       12
 66
     7
 43
1.0
 76
     1
 77
     6
 78
     2
 67
     7
 79
     5
170
     0
171
     0
290
     0
174
     0
 93
        1
 44
0.0
173
     0
291
     1
 45
0.0
1001
ACAD
1000
AcDbSavedByObjectVersion
1070
     0
  0
DICTIONARYVAR
  5
396
102
{ACAD_REACTORS
330
393
102
}
330
393
100
DictionaryVariables
280
     0
  1
2
  0
DICTIONARYVAR
  5
397
102
{ACAD_REACTORS
330
393
102
}
330
393
100
DictionaryVariables
280
     0
  1
1
  0
DICTIONARY
  5
3BA
330
3D
100
AcDbDictionary
280
     1
281
     1
  3
ACAD_XREC_ROUNDTRIP
360
3BB
  0
DICTIONARY
  5
3B8
330
3C
100
AcDbDictionary
280
     1
281
     1
  3
ACAD_XREC_ROUNDTRIP
360
3B9
  0
DICTIONARY
  5
3BC
330
3E
100
AcDbDictionary
280
     1
281
     1
  3
ACAD_XREC_ROUNDTRIP
360
3BD
  0
DICTIONARY
  5
3A0
330
2F
100
AcDbDictionary
280
     1
281
     1
  3
ACAD_XREC_ROUNDTRIP
360
3A1
  0
DICTIONARY
  5
3A4
330
31
100
AcDbDictionary
280
     1
281
     1
  3
ACAD_XREC_ROUNDTRIP
360
3A5
  0
DICTIONARY
  5
3A2
330
30
100
AcDbDictionary
280
     1
281
     1
  3
ACAD_XREC_ROUNDTRIP
360
3A3
  0
DICTIONARY
  5
3A6
330
32
100
AcDbDictionary
280
     1
281
     1
  3
ACAD_XREC_ROUNDTRIP
360
3A7
  0
DICTIONARY
  5
3AE
330
36
100
AcDbDictionary
280
     1
281
     1
  3
ACAD_XREC_ROUNDTRIP
360
3AF
  0
DICTIONARY
  5
3B6
330
3A
100
AcDbDictionary
280
     1
281
     1
  3
ACAD_XREC_ROUNDTRIP
360
3B7
  0
DICTIONARY
  5
3AA
330
34
100
AcDbDictionary
280
     1
281
     1
  3
ACAD_XREC_ROUNDTRIP
360
3AB
  0
DICTIONARY
  5
3AC
330
35
100
AcDbDictionary
280
     1
281
     1
  3
ACAD_XREC_ROUNDTRIP
360
3AD
  0
DICTIONARY
  5
3B4
330
39
100
AcDbDictionary
280
     1
281
     1
  3
ACAD_XREC_ROUNDTRIP
360
3B5
  0
DICTIONARY
  5
398
330
2B
100
AcDbDictionary
280
     1
281
     1
  3
ACAD_XREC_ROUNDTRIP
360
399
  0
DICTIONARY
  5
39A
330
2C
100
AcDbDictionary
280
     1
281
     1
  3
ACAD_XREC_ROUNDTRIP
360
39B
  0
DICTIONARY
  5
39C
330
2D
100
AcDbDictionary
280
     1
281
     1
  3
ACAD_XREC_ROUNDTRIP
360
39D
  0
DICTIONARY
  5
39E
330
2E
100
AcDbDictionary
280
     1
281
     1
  3
ACAD_XREC_ROUNDTRIP
360
39F
  0
DICTIONARY
  5
3B2
330
38
100
AcDbDictionary
280
     1
281
     1
  3
ACAD_XREC_ROUNDTRIP
360
3B3
  0
DICTIONARY
  5
3A8
330
33
100
AcDbDictionary
280
     1
281
     1
  3
ACAD_XREC_ROUNDTRIP
360
3A9
  0
DICTIONARY
  5
3B0
330
37
100
AcDbDictionary
280
     1
281
     1
  3
ACAD_XREC_ROUNDTRIP
360
3B1
  0
XRECORD
  5
3BB
102
{ACAD_REACTORS
330
3BA
102
}
330
3BA
100
AcDbXrecord
280
     1
102
MATERIAL
148
0.0
149
0.0
149
0.0
 93
        0
 94
      127
282
     0
 72
     1
 77
     1
171
     1
175
     1
179
     1
273
     0
  0
XRECORD
  5
3B9
102
{ACAD_REACTORS
330
3B8
102
}
330
3B8
100
AcDbXrecord
280
     1
102
MATERIAL
148
0.0
149
0.0
149
0.0
 93
        0
 94
      127
282
     0
 72
     1
 77
     1
171
     1
175
     1
179
     1
273
     0
  0
XRECORD
  5
3BD
102
{ACAD_REACTORS
330
3BC
102
}
330
3BC
100
AcDbXrecord
280
     1
102
MATERIAL
148
0.0
149
0.0
149
0.0
 93
        0
 94
      127
282
     0
 72
     1
 77
     1
171
     1
175
     1
179
     1
273
     0
  0
XRECORD
  5
3A1
102
{ACAD_REACTORS
330
3A0
102
}
330
3A0
100
AcDbXrecord
280
     1
102
RTVSPropertyOp0
 70
     1
102
RTVSPropertyOp1
 70
     1
102
RTVSPropertyOp2
 70
     1
102
RTVSPropertyOp3
 70
     1
102
RTVSPropertyOp4
 70
     1
102
RTVSPropertyOp5
 70
     1
102
RTVSPropertyOp6
 70
     1
102
RTVSPropertyOp7
 70
     1
102
RTVSPropertyOp8
 70
     1
102
RTVSPropertyOp9
 70
     1
102
RTVSPropertyOp10
 70
     1
102
RTVSPropertyOp11
 70
     1
102
RTVSPropertyOp12
 70
     1
102
RTVSPropertyOp13
 70
     1
102
RTVSPropertyOp14
 70
     1
102
RTVSPropertyOp15
 70
     1
102
RTVSPropertyOp16
 70
     1
102
RTVSPropertyOp17
 70
     1
102
RTVSPropertyOp18
 70
     1
102
RTVSPropertyOp19
 70
     1
102
RTVSPropertyOp20
 70
     1
102
RTVSPropertyOp21
 70
     1
102
RTVSPropertyOp22
 70
     1
102
RTVSPropertyOp23
 70
     1
102
RTVSPropertyOp24
 70
     1
102
RTVSPropertyOp25
 70
     1
102
RTVSPropertyOp26
 70
     1
102
RTVSPropertyOp27
 70
     1
  0
XRECORD
  5
3A5
102
{ACAD_REACTORS
330
3A4
102
}
330
3A4
100
AcDbXrecord
280
     1
102
RTVSPropertyOp0
 70
     1
102
RTVSPropertyOp1
 70
     1
102
RTVSPropertyOp2
 70
     1
102
RTVSPropertyOp3
 70
     1
102
RTVSPropertyOp4
 70
     1
102
RTVSPropertyOp5
 70
     1
102
RTVSPropertyOp6
 70
     1
102
RTVSPropertyOp7
 70
     1
102
RTVSPropertyOp8
 70
     1
102
RTVSPropertyOp9
 70
     1
102
RTVSPropertyOp10
 70
     1
102
RTVSPropertyOp11
 70
     1
102
RTVSPropertyOp12
 70
     1
102
RTVSPropertyOp13
 70
     1
102
RTVSPropertyOp14
 70
     1
102
RTVSPropertyOp15
 70
     1
102
RTVSPropertyOp16
 70
     1
102
RTVSPropertyOp17
 70
     1
102
RTVSPropertyOp18
 70
     1
102
RTVSPropertyOp19
 70
     1
102
RTVSPropertyOp20
 70
     1
102
RTVSPropertyOp21
 70
     1
102
RTVSPropertyOp22
 70
     1
102
RTVSPropertyOp23
 70
     1
102
RTVSPropertyOp24
 70
     1
102
RTVSPropertyOp25
 70
     1
102
RTVSPropertyOp26
 70
     1
102
RTVSPropertyOp27
 70
     1
  0
XRECORD
  5
3A3
102
{ACAD_REACTORS
330
3A2
102
}
330
3A2
100
AcDbXrecord
280
     1
102
RTVSPropertyOp0
 70
     1
102
RTVSPropertyOp1
 70
     1
102
RTVSPropertyOp2
 70
     1
102
RTVSPropertyOp3
 70
     1
102
RTVSPropertyOp4
 70
     1
102
RTVSPropertyOp5
 70
     1
102
RTVSPropertyOp6
 70
     1
102
RTVSPropertyOp7
 70
     1
102
RTVSPropertyOp8
 70
     1
102
RTVSPropertyOp9
 70
     1
102
RTVSPropertyOp10
 70
     1
102
RTVSPropertyOp11
 70
     1
102
RTVSPropertyOp12
 70
     1
102
RTVSPropertyOp13
 70
     1
102
RTVSPropertyOp14
 70
     1
102
RTVSPropertyOp15
 70
     1
102
RTVSPropertyOp16
 70
     1
102
RTVSPropertyOp17
 70
     1
102
RTVSPropertyOp18
 70
     1
102
RTVSPropertyOp19
 70
     1
102
RTVSPropertyOp20
 70
     1
102
RTVSPropertyOp21
 70
     1
102
RTVSPropertyOp22
 70
     1
102
RTVSPropertyOp23
 70
     1
102
RTVSPropertyOp24
 70
     1
102
RTVSPropertyOp25
 70
     1
102
RTVSPropertyOp26
 70
     1
102
RTVSPropertyOp27
 70
     1
  0
XRECORD
  5
3A7
102
{ACAD_REACTORS
330
3A6
102
}
330
3A6
100
AcDbXrecord
280
     1
102
RTVSPropertyOp0
 70
     1
102
RTVSPropertyOp1
 70
     1
102
RTVSPropertyOp2
 70
     1
102
RTVSPropertyOp3
 70
     1
102
RTVSPropertyOp4
 70
     1
102
RTVSPropertyOp5
 70
     1
102
RTVSPropertyOp6
 70
     1
102
RTVSPropertyOp7
 70
     1
102
RTVSPropertyOp8
 70
     1
102
RTVSPropertyOp9
 70
     1
102
RTVSPropertyOp10
 70
     1
102
RTVSPropertyOp11
 70
     1
102
RTVSPropertyOp12
 70
     1
102
RTVSPropertyOp13
 70
     1
102
RTVSPropertyOp14
 70
     1
102
RTVSPropertyOp15
 70
     1
102
RTVSPropertyOp16
 70
     1
102
RTVSPropertyOp17
 70
     1
102
RTVSPropertyOp18
 70
     1
102
RTVSPropertyOp19
 70
     1
102
RTVSPropertyOp20
 70
     1
102
RTVSPropertyOp21
 70
     1
102
RTVSPropertyOp22
 70
     1
102
RTVSPropertyOp23
 70
     1
102
RTVSPropertyOp24
 70
     1
102
RTVSPropertyOp25
 70
     1
102
RTVSPropertyOp26
 70
     1
102
RTVSPropertyOp27
 70
     1
  0
XRECORD
  5
3AF
102
{ACAD_REACTORS
330
3AE
102
}
330
3AE
100
AcDbXrecord
280
     1
102
RTVSPropertyOp0
 70
     1
102
RTVSPropertyOp1
 70
     1
102
RTVSPropertyOp2
 70
     1
102
RTVSPropertyOp3
 70
     1
102
RTVSPropertyOp4
 70
     1
102
RTVSPropertyOp5
 70
     1
102
RTVSPropertyOp6
 70
     1
102
RTVSPropertyOp7
 70
     1
102
RTVSPropertyOp8
 70
     1
102
RTVSPropertyOp9
 70
     1
102
RTVSPropertyOp10
 70
     1
102
RTVSPropertyOp11
 70
     1
102
RTVSPropertyOp12
 70
     1
102
RTVSPropertyOp13
 70
     1
102
RTVSPropertyOp14
 70
     1
102
RTVSPropertyOp15
 70
     1
102
RTVSPropertyOp16
 70
     1
102
RTVSPropertyOp17
 70
     1
102
RTVSPropertyOp18
 70
     1
102
RTVSPropertyOp19
 70
     1
102
RTVSPropertyOp20
 70
     1
102
RTVSPropertyOp21
 70
     1
102
RTVSPropertyOp22
 70
     1
102
RTVSPropertyOp23
 70
     1
102
RTVSPropertyOp24
 70
     1
102
RTVSPropertyOp25
 70
     1
102
RTVSPropertyOp26
 70
     1
102
RTVSPropertyOp27
 70
     1
  0
XRECORD
  5
3B7
102
{ACAD_REACTORS
330
3B6
102
}
330
3B6
100
AcDbXrecord
280
     1
102
RTVSPropertyOp0
 70
     1
102
RTVSPropertyOp1
 70
     1
102
RTVSPropertyOp2
 70
     1
102
RTVSPropertyOp3
 70
     1
102
RTVSPropertyOp4
 70
     1
102
RTVSPropertyOp5
 70
     1
102
RTVSPropertyOp6
 70
     1
102
RTVSPropertyOp7
 70
     1
102
RTVSPropertyOp8
 70
     1
102
RTVSPropertyOp9
 70
     1
102
RTVSPropertyOp10
 70
     1
102
RTVSPropertyOp11
 70
     1
102
RTVSPropertyOp12
 70
     1
102
RTVSPropertyOp13
 70
     1
102
RTVSPropertyOp14
 70
     1
102
RTVSPropertyOp15
 70
     1
102
RTVSPropertyOp16
 70
     1
102
RTVSPropertyOp17
 70
     1
102
RTVSPropertyOp18
 70
     1
102
RTVSPropertyOp19
 70
     1
102
RTVSPropertyOp20
 70
     1
102
RTVSPropertyOp21
 70
     1
102
RTVSPropertyOp22
 70
     1
102
RTVSPropertyOp23
 70
     1
102
RTVSPropertyOp24
 70
     1
102
RTVSPropertyOp25
 70
     1
102
RTVSPropertyOp26
 70
     1
102
RTVSPropertyOp27
 70
     1
  0
XRECORD
  5
3AB
102
{ACAD_REACTORS
330
3AA
102
}
330
3AA
100
AcDbXrecord
280
     1
102
RTVSPropertyOp0
 70
     1
102
RTVSPropertyOp1
 70
     1
102
RTVSPropertyOp2
 70
     1
102
RTVSPropertyOp3
 70
     1
102
RTVSPropertyOp4
 70
     1
102
RTVSPropertyOp5
 70
     1
102
RTVSPropertyOp6
 70
     1
102
RTVSPropertyOp7
 70
     1
102
RTVSPropertyOp8
 70
     1
102
RTVSPropertyOp9
 70
     1
102
RTVSPropertyOp10
 70
     1
102
RTVSPropertyOp11
 70
     1
102
RTVSPropertyOp12
 70
     1
102
RTVSPropertyOp13
 70
     1
102
RTVSPropertyOp14
 70
     1
102
RTVSPropertyOp15
 70
     1
102
RTVSPropertyOp16
 70
     1
102
RTVSPropertyOp17
 70
     1
102
RTVSPropertyOp18
 70
     1
102
RTVSPropertyOp19
 70
     1
102
RTVSPropertyOp20
 70
     1
102
RTVSPropertyOp21
 70
     1
102
RTVSPropertyOp22
 70
     1
102
RTVSPropertyOp23
 70
     1
102
RTVSPropertyOp24
 70
     1
102
RTVSPropertyOp25
 70
     1
102
RTVSPropertyOp26
 70
     1
102
RTVSPropertyOp27
 70
     1
  0
XRECORD
  5
3AD
102
{ACAD_REACTORS
330
3AC
102
}
330
3AC
100
AcDbXrecord
280
     1
102
RTVSPropertyOp0
 70
     1
102
RTVSPropertyOp1
 70
     1
102
RTVSPropertyOp2
 70
     1
102
RTVSPropertyOp3
 70
     1
102
RTVSPropertyOp4
 70
     1
102
RTVSPropertyOp5
 70
     1
102
RTVSPropertyOp6
 70
     1
102
RTVSPropertyOp7
 70
     1
102
RTVSPropertyOp8
 70
     1
102
RTVSPropertyOp9
 70
     1
102
RTVSPropertyOp10
 70
     1
102
RTVSPropertyOp11
 70
     1
102
RTVSPropertyOp12
 70
     1
102
RTVSPropertyOp13
 70
     1
102
RTVSPropertyOp14
 70
     1
102
RTVSPropertyOp15
 70
     1
102
RTVSPropertyOp16
 70
     1
102
RTVSPropertyOp17
 70
     1
102
RTVSPropertyOp18
 70
     1
102
RTVSPropertyOp19
 70
     1
102
RTVSPropertyOp20
 70
     1
102
RTVSPropertyOp21
 70
     1
102
RTVSPropertyOp22
 70
     1
102
RTVSPropertyOp23
 70
     1
102
RTVSPropertyOp24
 70
     1
102
RTVSPropertyOp25
 70
     1
102
RTVSPropertyOp26
 70
     1
102
RTVSPropertyOp27
 70
     1
  0
XRECORD
  5
3B5
102
{ACAD_REACTORS
330
3B4
102
}
330
3B4
100
AcDbXrecord
280
     1
102
RTVSPropertyOp0
 70
     1
102
RTVSPropertyOp1
 70
     1
102
RTVSPropertyOp2
 70
     1
102
RTVSPropertyOp3
 70
     1
102
RTVSPropertyOp4
 70
     1
102
RTVSPropertyOp5
 70
     1
102
RTVSPropertyOp6
 70
     1
102
RTVSPropertyOp7
 70
     1
102
RTVSPropertyOp8
 70
     1
102
RTVSPropertyOp9
 70
     1
102
RTVSPropertyOp10
 70
     1
102
RTVSPropertyOp11
 70
     1
102
RTVSPropertyOp12
 70
     1
102
RTVSPropertyOp13
 70
     1
102
RTVSPropertyOp14
 70
     1
102
RTVSPropertyOp15
 70
     1
102
RTVSPropertyOp16
 70
     1
102
RTVSPropertyOp17
 70
     1
102
RTVSPropertyOp18
 70
     1
102
RTVSPropertyOp19
 70
     1
102
RTVSPropertyOp20
 70
     1
102
RTVSPropertyOp21
 70
     1
102
RTVSPropertyOp22
 70
     1
102
RTVSPropertyOp23
 70
     1
102
RTVSPropertyOp24
 70
     1
102
RTVSPropertyOp25
 70
     1
102
RTVSPropertyOp26
 70
     1
102
RTVSPropertyOp27
 70
     1
  0
XRECORD
  5
399
102
{ACAD_REACTORS
330
398
102
}
330
398
100
AcDbXrecord
280
     1
102
RTVSPropertyOp0
 70
     1
102
RTVSPropertyOp1
 70
     1
102
RTVSPropertyOp2
 70
     1
102
RTVSPropertyOp3
 70
     1
102
RTVSPropertyOp4
 70
     1
102
RTVSPropertyOp5
 70
     1
102
RTVSPropertyOp6
 70
     1
102
RTVSPropertyOp7
 70
     1
102
RTVSPropertyOp8
 70
     1
102
RTVSPropertyOp9
 70
     1
102
RTVSPropertyOp10
 70
     1
102
RTVSPropertyOp11
 70
     1
102
RTVSPropertyOp12
 70
     1
102
RTVSPropertyOp13
 70
     1
102
RTVSPropertyOp14
 70
     1
102
RTVSPropertyOp15
 70
     1
102
RTVSPropertyOp16
 70
     1
102
RTVSPropertyOp17
 70
     1
102
RTVSPropertyOp18
 70
     1
102
RTVSPropertyOp19
 70
     1
102
RTVSPropertyOp20
 70
     1
102
RTVSPropertyOp21
 70
     1
102
RTVSPropertyOp22
 70
     1
102
RTVSPropertyOp23
 70
     1
102
RTVSPropertyOp24
 70
     1
102
RTVSPropertyOp25
 70
     1
102
RTVSPropertyOp26
 70
     1
102
RTVSPropertyOp27
 70
     1
  0
XRECORD
  5
39B
102
{ACAD_REACTORS
330
39A
102
}
330
39A
100
AcDbXrecord
280
     1
102
RTVSPropertyOp0
 70
     1
102
RTVSPropertyOp1
 70
     1
102
RTVSPropertyOp2
 70
     1
102
RTVSPropertyOp3
 70
     1
102
RTVSPropertyOp4
 70
     1
102
RTVSPropertyOp5
 70
     1
102
RTVSPropertyOp6
 70
     1
102
RTVSPropertyOp7
 70
     1
102
RTVSPropertyOp8
 70
     1
102
RTVSPropertyOp9
 70
     1
102
RTVSPropertyOp10
 70
     1
102
RTVSPropertyOp11
 70
     1
102
RTVSPropertyOp12
 70
     1
102
RTVSPropertyOp13
 70
     1
102
RTVSPropertyOp14
 70
     1
102
RTVSPropertyOp15
 70
     1
102
RTVSPropertyOp16
 70
     1
102
RTVSPropertyOp17
 70
     1
102
RTVSPropertyOp18
 70
     1
102
RTVSPropertyOp19
 70
     1
102
RTVSPropertyOp20
 70
     1
102
RTVSPropertyOp21
 70
     1
102
RTVSPropertyOp22
 70
     1
102
RTVSPropertyOp23
 70
     1
102
RTVSPropertyOp24
 70
     1
102
RTVSPropertyOp25
 70
     1
102
RTVSPropertyOp26
 70
     1
102
RTVSPropertyOp27
 70
     1
  0
XRECORD
  5
39D
102
{ACAD_REACTORS
330
39C
102
}
330
39C
100
AcDbXrecord
280
     1
102
RTVSPropertyOp0
 70
     1
102
RTVSPropertyOp1
 70
     1
102
RTVSPropertyOp2
 70
     1
102
RTVSPropertyOp3
 70
     1
102
RTVSPropertyOp4
 70
     1
102
RTVSPropertyOp5
 70
     1
102
RTVSPropertyOp6
 70
     1
102
RTVSPropertyOp7
 70
     1
102
RTVSPropertyOp8
 70
     1
102
RTVSPropertyOp9
 70
     1
102
RTVSPropertyOp10
 70
     1
102
RTVSPropertyOp11
 70
     1
102
RTVSPropertyOp12
 70
     1
102
RTVSPropertyOp13
 70
     1
102
RTVSPropertyOp14
 70
     1
102
RTVSPropertyOp15
 70
     1
102
RTVSPropertyOp16
 70
     1
102
RTVSPropertyOp17
 70
     1
102
RTVSPropertyOp18
 70
     1
102
RTVSPropertyOp19
 70
     1
102
RTVSPropertyOp20
 70
     1
102
RTVSPropertyOp21
 70
     1
102
RTVSPropertyOp22
 70
     1
102
RTVSPropertyOp23
 70
     1
102
RTVSPropertyOp24
 70
     1
102
RTVSPropertyOp25
 70
     1
102
RTVSPropertyOp26
 70
     1
102
RTVSPropertyOp27
 70
     1
  0
XRECORD
  5
39F
102
{ACAD_REACTORS
330
39E
102
}
330
39E
100
AcDbXrecord
280
     1
102
RTVSPropertyOp0
 70
     1
102
RTVSPropertyOp1
 70
     1
102
RTVSPropertyOp2
 70
     1
102
RTVSPropertyOp3
 70
     1
102
RTVSPropertyOp4
 70
     1
102
RTVSPropertyOp5
 70
     1
102
RTVSPropertyOp6
 70
     1
102
RTVSPropertyOp7
 70
     1
102
RTVSPropertyOp8
 70
     1
102
RTVSPropertyOp9
 70
     1
102
RTVSPropertyOp10
 70
     1
102
RTVSPropertyOp11
 70
     1
102
RTVSPropertyOp12
 70
     1
102
RTVSPropertyOp13
 70
     1
102
RTVSPropertyOp14
 70
     1
102
RTVSPropertyOp15
 70
     1
102
RTVSPropertyOp16
 70
     1
102
RTVSPropertyOp17
 70
     1
102
RTVSPropertyOp18
 70
     1
102
RTVSPropertyOp19
 70
     1
102
RTVSPropertyOp20
 70
     1
102
RTVSPropertyOp21
 70
     1
102
RTVSPropertyOp22
 70
     1
102
RTVSPropertyOp23
 70
     1
102
RTVSPropertyOp24
 70
     1
102
RTVSPropertyOp25
 70
     1
102
RTVSPropertyOp26
 70
     1
102
RTVSPropertyOp27
 70
     1
  0
XRECORD
  5
3B3
102
{ACAD_REACTORS
330
3B2
102
}
330
3B2
100
AcDbXrecord
280
     1
102
RTVSPropertyOp0
 70
     1
102
RTVSPropertyOp1
 70
     1
102
RTVSPropertyOp2
 70
     1
102
RTVSPropertyOp3
 70
     1
102
RTVSPropertyOp4
 70
     1
102
RTVSPropertyOp5
 70
     1
102
RTVSPropertyOp6
 70
     1
102
RTVSPropertyOp7
 70
     1
102
RTVSPropertyOp8
 70
     1
102
RTVSPropertyOp9
 70
     1
102
RTVSPropertyOp10
 70
     1
102
RTVSPropertyOp11
 70
     1
102
RTVSPropertyOp12
 70
     1
102
RTVSPropertyOp13
 70
     1
102
RTVSPropertyOp14
 70
     1
102
RTVSPropertyOp15
 70
     1
102
RTVSPropertyOp16
 70
     1
102
RTVSPropertyOp17
 70
     1
102
RTVSPropertyOp18
 70
     1
102
RTVSPropertyOp19
 70
     1
102
RTVSPropertyOp20
 70
     1
102
RTVSPropertyOp21
 70
     1
102
RTVSPropertyOp22
 70
     1
102
RTVSPropertyOp23
 70
     1
102
RTVSPropertyOp24
 70
     1
102
RTVSPropertyOp25
 70
     1
102
RTVSPropertyOp26
 70
     1
102
RTVSPropertyOp27
 70
     1
  0
XRECORD
  5
3A9
102
{ACAD_REACTORS
330
3A8
102
}
330
3A8
100
AcDbXrecord
280
     1
102
RTVSPropertyOp0
 70
     1
102
RTVSPropertyOp1
 70
     1
102
RTVSPropertyOp2
 70
     1
102
RTVSPropertyOp3
 70
     1
102
RTVSPropertyOp4
 70
     1
102
RTVSPropertyOp5
 70
     1
102
RTVSPropertyOp6
 70
     1
102
RTVSPropertyOp7
 70
     1
102
RTVSPropertyOp8
 70
     1
102
RTVSPropertyOp9
 70
     1
102
RTVSPropertyOp10
 70
     1
102
RTVSPropertyOp11
 70
     1
102
RTVSPropertyOp12
 70
     1
102
RTVSPropertyOp13
 70
     1
102
RTVSPropertyOp14
 70
     1
102
RTVSPropertyOp15
 70
     1
102
RTVSPropertyOp16
 70
     1
102
RTVSPropertyOp17
 70
     1
102
RTVSPropertyOp18
 70
     1
102
RTVSPropertyOp19
 70
     1
102
RTVSPropertyOp20
 70
     1
102
RTVSPropertyOp21
 70
     1
102
RTVSPropertyOp22
 70
     1
102
RTVSPropertyOp23
 70
     1
102
RTVSPropertyOp24
 70
     1
102
RTVSPropertyOp25
 70
     1
102
RTVSPropertyOp26
 70
     1
102
RTVSPropertyOp27
 70
     1
  0
XRECORD
  5
3B1
102
{ACAD_REACTORS
330
3B0
102
}
330
3B0
100
AcDbXrecord
280
     1
102
RTVSPropertyOp0
 70
     1
102
RTVSPropertyOp1
 70
     1
102
RTVSPropertyOp2
 70
     1
102
RTVSPropertyOp3
 70
     1
102
RTVSPropertyOp4
 70
     1
102
RTVSPropertyOp5
 70
     1
102
RTVSPropertyOp6
 70
     1
102
RTVSPropertyOp7
 70
     1
102
RTVSPropertyOp8
 70
     1
102
RTVSPropertyOp9
 70
     1
102
RTVSPropertyOp10
 70
     1
102
RTVSPropertyOp11
 70
     1
102
RTVSPropertyOp12
 70
     1
102
RTVSPropertyOp13
 70
     1
102
RTVSPropertyOp14
 70
     1
102
RTVSPropertyOp15
 70
     1
102
RTVSPropertyOp16
 70
     1
102
RTVSPropertyOp17
 70
     1
102
RTVSPropertyOp18
 70
     1
102
RTVSPropertyOp19
 70
     1
102
RTVSPropertyOp20
 70
     1
102
RTVSPropertyOp21
 70
     1
102
RTVSPropertyOp22
 70
     1
102
RTVSPropertyOp23
 70
     1
102
RTVSPropertyOp24
 70
     1
102
RTVSPropertyOp25
 70
     1
102
RTVSPropertyOp26
 70
     1
102
RTVSPropertyOp27
 70
     1
  0
ENDSEC
  0
EOF
