  0
SECTION
  2
HEADER
  9
$ACADVER
  1
AC1015
  9
$ACADMAINTVER
 70
     6
  9
$DWGCODEPAGE
  3
ANSI_932
  9
$INSBASE
 10
0.0
 20
0.0
 30
0.0
  9
$EXTMIN
 10
-182.054005931968
 20
-170.585821484024
 30
0.0
  9
$EXTMAX
 10
315.0
 20
315.0
 30
0.0
  9
$LIMMIN
 10
0.0
 20
0.0
  9
$LIMMAX
 10
12.0
 20
9.0
  9
$ORTHOMODE
 70
     0
  9
$REGENMODE
 70
     1
  9
$FILLMODE
 70
     1
  9
$QTEXTMODE
 70
     0
  9
$MIRRTEXT
 70
     1
  9
$LTSCALE
 40
1.0
  9
$ATTMODE
 70
     1
  9
$TEXTSIZE
 40
0.2
  9
$TRACEWID
 40
0.05
  9
$TEXTSTYLE
  7
Standard
  9
$CLAYER
  8
0
  9
$CELTYPE
  6
ByLayer
  9
$CECOLOR
 62
   256
  9
$CELTSCALE
 40
1.0
  9
$DISPSILH
 70
     0
  9
$DIMSCALE
 40
1.0
  9
$DIMASZ
 40
0.18
  9
$DIMEXO
 40
0.0625
  9
$DIMDLI
 40
0.38
  9
$DIMRND
 40
0.0
  9
$DIMDLE
 40
0.0
  9
$DIMEXE
 40
0.18
  9
$DIMTP
 40
0.0
  9
$DIMTM
 40
0.0
  9
$DIMTXT
 40
0.18
  9
$DIMCEN
 40
0.09
  9
$DIMTSZ
 40
0.0
  9
$DIMTOL
 70
     0
  9
$DIMLIM
 70
     0
  9
$DIMTIH
 70
     1
  9
$DIMTOH
 70
     1
  9
$DIMSE1
 70
     0
  9
$DIMSE2
 70
     0
  9
$DIMTAD
 70
     0
  9
$DIMZIN
 70
     0
  9
$DIMBLK
  1

  9
$DIMASO
 70
     1
  9
$DIMSHO
 70
     1
  9
$DIMPOST
  1

  9
$DIMAPOST
  1

  9
$DIMALT
 70
     0
  9
$DIMALTD
 70
     2
  9
$DIMALTF
 40
25.4
  9
$DIMLFAC
 40
1.0
  9
$DIMTOFL
 70
     0
  9
$DIMTVP
 40
0.0
  9
$DIMTIX
 70
     0
  9
$DIMSOXD
 70
     0
  9
$DIMSAH
 70
     0
  9
$DIMBLK1
  1

  9
$DIMBLK2
  1

  9
$DIMSTYLE
  2
Standard
  9
$DIMCLRD
 70
     0
  9
$DIMCLRE
 70
     0
  9
$DIMCLRT
 70
     0
  9
$DIMTFAC
 40
1.0
  9
$DIMGAP
 40
0.09
  9
$DIMJUST
 70
     0
  9
$DIMSD1
 70
     0
  9
$DIMSD2
 70
     0
  9
$DIMTOLJ
 70
     1
  9
$DIMTZIN
 70
     0
  9
$DIMALTZ
 70
     0
  9
$DIMALTTZ
 70
     0
  9
$DIMUPT
 70
     0
  9
$DIMDEC
 70
     4
  9
$DIMTDEC
 70
     4
  9
$DIMALTU
 70
     2
  9
$DIMALTTD
 70
     2
  9
$DIMTXSTY
  7
Standard
  9
$DIMAUNIT
 70
     0
  9
$DIMADEC
 70
     0
  9
$DIMALTRND
 40
0.0
  9
$DIMAZIN
 70
     0
  9
$DIMDSEP
 70
    46
  9
$DIMATFIT
 70
     3
  9
$DIMFRAC
 70
     0
  9
$DIMLDRBLK
  1

  9
$DIMLUNIT
 70
     2
  9
$DIMLWD
 70
    -2
  9
$DIMLWE
 70
    -2
  9
$DIMTMOVE
 70
     0
  9
$LUNITS
 70
     2
  9
$LUPREC
 70
     4
  9
$SKETCHINC
 40
0.1
  9
$FILLETRAD
 40
0.5
  9
$AUNITS
 70
     0
  9
$AUPREC
 70
     0
  9
$MENU
  1
.
  9
$ELEVATION
 40
0.0
  9
$PELEVATION
 40
0.0
  9
$THICKNESS
 40
0.0
  9
$LIMCHECK
 70
     0
  9
$CHAMFERA
 40
0.5
  9
$CHAMFERB
 40
0.5
  9
$CHAMFERC
 40
1.0
  9
$CHAMFERD
 40
0.0
  9
$SKPOLY
 70
     0
  9
$TDCREATE
 40
2457624.68595669
  9
$TDUCREATE
 40
2457624.31095669
  9
$TDUPDATE
 40
2457624.685956701
  9
$TDUUPDATE
 40
2457624.310956701
  9
$TDINDWG
 40
0.0000000116
  9
$TDUSRTIMER
 40
0.0000000116
  9
$USRTIMER
 70
     1
  9
$ANGBASE
 50
0.0
  9
$ANGDIR
 70
     0
  9
$PDMODE
 70
     0
  9
$PDSIZE
 40
0.0
  9
$PLINEWID
 40
0.0
  9
$SPLFRAME
 70
     0
  9
$SPLINETYPE
 70
     6
  9
$SPLINESEGS
 70
     8
  9
$HANDSEED
  5
2AF
  9
$SURFTAB1
 70
     6
  9
$SURFTAB2
 70
     6
  9
$SURFTYPE
 70
     6
  9
$SURFU
 70
     6
  9
$SURFV
 70
     6
  9
$UCSBASE
  2

  9
$UCSNAME
  2

  9
$UCSORG
 10
0.0
 20
0.0
 30
0.0
  9
$UCSXDIR
 10
1.0
 20
0.0
 30
0.0
  9
$UCSYDIR
 10
0.0
 20
1.0
 30
0.0
  9
$UCSORTHOREF
  2

  9
$UCSORTHOVIEW
 70
     0
  9
$UCSORGTOP
 10
0.0
 20
0.0
 30
0.0
  9
$UCSORGBOTTOM
 10
0.0
 20
0.0
 30
0.0
  9
$UCSORGLEFT
 10
0.0
 20
0.0
 30
0.0
  9
$UCSORGRIGHT
 10
0.0
 20
0.0
 30
0.0
  9
$UCSORGFRONT
 10
0.0
 20
0.0
 30
0.0
  9
$UCSORGBACK
 10
0.0
 20
0.0
 30
0.0
  9
$PUCSBASE
  2

  9
$PUCSNAME
  2

  9
$PUCSORG
 10
0.0
 20
0.0
 30
0.0
  9
$PUCSXDIR
 10
1.0
 20
0.0
 30
0.0
  9
$PUCSYDIR
 10
0.0
 20
1.0
 30
0.0
  9
$PUCSORTHOREF
  2

  9
$PUCSORTHOVIEW
 70
     0
  9
$PUCSORGTOP
 10
0.0
 20
0.0
 30
0.0
  9
$PUCSORGBOTTOM
 10
0.0
 20
0.0
 30
0.0
  9
$PUCSORGLEFT
 10
0.0
 20
0.0
 30
0.0
  9
$PUCSORGRIGHT
 10
0.0
 20
0.0
 30
0.0
  9
$PUCSORGFRONT
 10
0.0
 20
0.0
 30
0.0
  9
$PUCSORGBACK
 10
0.0
 20
0.0
 30
0.0
  9
$USERI1
 70
     0
  9
$USERI2
 70
     0
  9
$USERI3
 70
     0
  9
$USERI4
 70
     0
  9
$USERI5
 70
     0
  9
$USERR1
 40
18.0
  9
$USERR2
 40
0.0
  9
$USERR3
 40
0.0
  9
$USERR4
 40
0.0
  9
$USERR5
 40
0.0
  9
$WORLDVIEW
 70
     1
  9
$SHADEDGE
 70
     3
  9
$SHADEDIF
 70
    70
  9
$TILEMODE
 70
     1
  9
$MAXACTVP
 70
    64
  9
$PINSBASE
 10
0.0
 20
0.0
 30
0.0
  9
$PLIMCHECK
 70
     0
  9
$PEXTMIN
 10
1.00000000000000E+20
 20
1.00000000000000E+20
 30
1.00000000000000E+20
  9
$PEXTMAX
 10
-1.00000000000000E+20
 20
-1.00000000000000E+20
 30
-1.00000000000000E+20
  9
$PLIMMIN
 10
0.0
 20
0.0
  9
$PLIMMAX
 10
12.0
 20
9.0
  9
$UNITMODE
 70
     0
  9
$VISRETAIN
 70
     1
  9
$PLINEGEN
 70
     0
  9
$PSLTSCALE
 70
     1
  9
$TREEDEPTH
 70
  3020
  9
$CMLSTYLE
  2
Standard
  9
$CMLJUST
 70
     0
  9
$CMLSCALE
 40
1.0
  9
$PROXYGRAPHICS
 70
     1
  9
$MEASUREMENT
 70
     1
  9
$CELWEIGHT
370
    -1
  9
$ENDCAPS
280
     0
  9
$JOINSTYLE
280
     0
  9
$LWDISPLAY
290
     0
  9
$INSUNITS
 70
     1
  9
$HYPERLINKBASE
  1

  9
$STYLESHEET
  1

  9
$XEDIT
290
     1
  9
$CEPSNTYPE
380
     0
  9
$PSTYLEMODE
290
     1
  9
$FINGERPRINTGUID
  2
{641ABF2E-793F-44B9-9AFD-C34CD81AC5B2}
  9
$VERSIONGUID
  2
{FAEB1C32-E019-11D5-929B-00C0DF256EC4}
  9
$EXTNAMES
290
     1
  9
$PSVPSCALE
 40
0.0
  9
$OLESTARTUP
290
     0
  0
ENDSEC
  0
SECTION
  2
CLASSES
  0
CLASS
  1
ACDBDICTIONARYWDFLT
  2
AcDbDictionaryWithDefault
  3
ObjectDBX Classes
 90
        0
280
     0
281
     0
  0
CLASS
  1
VISUALSTYLE
  2
AcDbVisualStyle
  3
ObjectDBX Classes
 90
     4095
280
     0
281
     0
  0
CLASS
  1
MATERIAL
  2
AcDbMaterial
  3
ObjectDBX Classes
 90
     1153
280
     0
281
     0
  0
CLASS
  1

  2
exOdDbCircle
  3

 90
        0
280
     0
281
     1
  0
CLASS
  1

  2
exOdDbPolyline
  3

 90
        0
280
     0
281
     1
  0
CLASS
  1
DICTIONARYVAR
  2
AcDbDictionaryVar
  3
ObjectDBX Classes
 90
        0
280
     0
281
     0
  0
CLASS
  1
ACDBPLACEHOLDER
  2
AcDbPlaceHolder
  3
ObjectDBX Classes
 90
        0
280
     0
281
     0
  0
CLASS
  1
LAYOUT
  2
AcDbLayout
  3
ObjectDBX Classes
 90
        0
280
     0
281
     0
  0
ENDSEC
  0
SECTION
  2
TABLES
  0
TABLE
  2
VPORT
  5
8
330
0
100
AcDbSymbolTable
 70
     1
  0
VPORT
  5
29
330
8
100
AcDbSymbolTableRecord
100
AcDbViewportTableRecord
  2
*Active
 70
     0
 10
0.0
 20
0.0
 11
1.0
 21
1.0
 12
66.472997034016
 22
72.207089257988
 13
0.0
 23
0.0
 14
0.5
 24
0.5
 15
0.5
 25
0.5
 16
0.0
 26
0.0
 36
1.0
 17
0.0
 27
0.0
 37
0.0
 40
534.1444036324265
 41
1.60267857142857
 42
50.0
 43
0.0
 44
0.0
 50
0.0
 51
0.0
 71
     0
 72
   100
 73
     1
 74
     3
 75
     0
 76
     0
 77
     0
 78
     0
281
     0
 65
     1
110
0.0
120
0.0
130
0.0
111
1.0
121
0.0
131
0.0
112
0.0
122
1.0
132
0.0
 79
     0
146
0.0
  0
ENDTAB
  0
TABLE
  2
LTYPE
  5
5
330
0
100
AcDbSymbolTable
 70
     9
  0
LTYPE
  5
14
330
5
100
AcDbSymbolTableRecord
100
AcDbLinetypeTableRecord
  2
ByBlock
 70
     0
  3

 72
    65
 73
     0
 40
0.0
  0
LTYPE
  5
15
330
5
100
AcDbSymbolTableRecord
100
AcDbLinetypeTableRecord
  2
ByLayer
 70
     0
  3

 72
    65
 73
     0
 40
0.0
  0
LTYPE
  5
16
330
5
100
AcDbSymbolTableRecord
100
AcDbLinetypeTableRecord
  2
Continuous
 70
     0
  3
Solid line
 72
    65
 73
     0
 40
0.0
  0
LTYPE
  5
3F
330
5
100
AcDbSymbolTableRecord
100
AcDbLinetypeTableRecord
  2
DASHED
 70
     0
  3
Dashed
 72
    65
 73
     2
 40
15.0
 49
7.0
 74
     0
 49
-8.0
 74
     0
  0
LTYPE
  5
40
330
5
100
AcDbSymbolTableRecord
100
AcDbLinetypeTableRecord
  2
DOTTED
 70
     0
  3
Dotted
 72
    65
 73
     2
 40
1.0
 49
0.0
 74
     0
 49
-1.0
 74
     0
  0
LTYPE
  5
41
330
5
100
AcDbSymbolTableRecord
100
AcDbLinetypeTableRecord
  2
DOT_CENTER
 70
     0
  3
Dot_Center
 72
    65
 73
     4
 40
14.0
 49
12.0
 74
     0
 49
-1.0
 74
     0
 49
0.0
 74
     0
 49
-1.0
 74
     0
  0
LTYPE
  5
42
330
5
100
AcDbSymbolTableRecord
100
AcDbLinetypeTableRecord
  2
LONG_DASHED
 70
     0
  3
Long_Dashed
 72
    65
 73
     2
 40
15.0
 49
10.0
 74
     0
 49
-5.0
 74
     0
  0
LTYPE
  5
43
330
5
100
AcDbSymbolTableRecord
100
AcDbLinetypeTableRecord
  2
DASH_CENTER
 70
     0
  3
Dash_Center
 72
    65
 73
     4
 40
14.0
 49
11.0
 74
     0
 49
-1.0
 74
     0
 49
1.0
 74
     0
 49
-1.0
 74
     0
  0
LTYPE
  5
44
330
5
100
AcDbSymbolTableRecord
100
AcDbLinetypeTableRecord
  2
PHANTOM
 70
     0
  3
Phantom
 72
    65
 73
     6
 40
13.0
 49
10.0
 74
     0
 49
-1.0
 74
     0
 49
0.0
 74
     0
 49
-1.0
 74
     0
 49
0.0
 74
     0
 49
-1.0
 74
     0
  0
LTYPE
  5
45
330
5
100
AcDbSymbolTableRecord
100
AcDbLinetypeTableRecord
  2
CENTER_DASH_DASH
 70
     0
  3
Center_Dash_Dash
 72
    65
 73
     6
 40
14.0
 49
9.0
 74
     0
 49
-1.0
 74
     0
 49
1.0
 74
     0
 49
-1.0
 74
     0
 49
1.0
 74
     0
 49
-1.0
 74
     0
  0
LTYPE
  5
46
330
5
100
AcDbSymbolTableRecord
100
AcDbLinetypeTableRecord
  2
CENTER
 70
     0
  3
CENTER
 72
    65
 73
     4
 40
6.0
 49
3.0
 74
     0
 49
-1.0
 74
     0
 49
1.0
 74
     0
 49
-1.0
 74
     0
  0
ENDTAB
  0
TABLE
  2
LAYER
  5
2
330
0
100
AcDbSymbolTable
 70
     4
  0
LAYER
  5
10
330
2
100
AcDbSymbolTableRecord
100
AcDbLayerTableRecord
  2
0
 70
     0
 62
     7
  6
Continuous
370
    -3
390
F
  0
LAYER
  5
47
330
2
100
AcDbSymbolTableRecord
100
AcDbLayerTableRecord
  2
1
 70
     0
 62
     7
  6
Continuous
370
    -3
390
F
  0
LAYER
  5
48
330
2
100
AcDbSymbolTableRecord
100
AcDbLayerTableRecord
  2
100
 70
     0
 62
     7
  6
Continuous
370
    -3
390
F
  0
LAYER
  5
49
330
2
100
AcDbSymbolTableRecord
100
AcDbLayerTableRecord
  2
2
 70
     0
 62
     7
  6
Continuous
370
    -3
390
F
  0
ENDTAB
  0
TABLE
  2
STYLE
  5
3
330
0
100
AcDbSymbolTable
 70
     1
  0
STYLE
  5
11
330
3
100
AcDbSymbolTableRecord
100
AcDbTextStyleTableRecord
  2
Standard
 70
     0
 40
0.0
 41
1.0
 50
0.0
 71
     0
 42
0.2
  3
txt
  4

  0
ENDTAB
  0
TABLE
  2
VIEW
  5
6
330
0
100
AcDbSymbolTable
 70
     0
  0
ENDTAB
  0
TABLE
  2
UCS
  5
7
330
0
100
AcDbSymbolTable
 70
     0
  0
ENDTAB
  0
TABLE
  2
APPID
  5
9
330
0
100
AcDbSymbolTable
 70
     1
  0
APPID
  5
12
330
9
100
AcDbSymbolTableRecord
100
AcDbRegAppTableRecord
  2
ACAD
 70
     0
  0
ENDTAB
  0
TABLE
  2
DIMSTYLE
  5
A
330
0
100
AcDbSymbolTable
 70
     1
100
AcDbDimStyleTable
  0
DIMSTYLE
105
27
330
A
100
AcDbSymbolTableRecord
100
AcDbDimStyleTableRecord
  2
Standard
 70
     0
340
11
  0
ENDTAB
  0
TABLE
  2
BLOCK_RECORD
  5
1
330
0
100
AcDbSymbolTable
 70
     1
  0
BLOCK_RECORD
  5
1F
330
1
100
AcDbSymbolTableRecord
100
AcDbBlockTableRecord
  2
*Model_Space
340
22
  0
BLOCK_RECORD
  5
1B
330
1
100
AcDbSymbolTableRecord
100
AcDbBlockTableRecord
  2
*Paper_Space
340
1E
  0
BLOCK_RECORD
  5
23
330
1
100
AcDbSymbolTableRecord
100
AcDbBlockTableRecord
  2
*Paper_Space0
340
26
  0
ENDTAB
  0
ENDSEC
  0
SECTION
  2
BLOCKS
  0
BLOCK
  5
20
330
1F
100
AcDbEntity
  8
0
100
AcDbBlockBegin
  2
*Model_Space
 70
     0
 10
0.0
 20
0.0
 30
0.0
  3
*Model_Space
  1

  0
ENDBLK
  5
21
330
1F
100
AcDbEntity
  8
0
100
AcDbBlockEnd
  0
BLOCK
  5
1C
330
1B
100
AcDbEntity
 67
     1
  8
0
100
AcDbBlockBegin
  2
*Paper_Space
 70
     0
 10
0.0
 20
0.0
 30
0.0
  3
*Paper_Space
  1

  0
ENDBLK
  5
1D
330
1B
100
AcDbEntity
 67
     1
  8
0
100
AcDbBlockEnd
  0
BLOCK
  5
24
330
23
100
AcDbEntity
  8
0
100
AcDbBlockBegin
  2
*Paper_Space0
 70
     0
 10
0.0
 20
0.0
 30
0.0
  3
*Paper_Space0
  1

  0
ENDBLK
  5
25
330
23
100
AcDbEntity
  8
0
100
AcDbBlockEnd
  0
ENDSEC
  0
SECTION
  2
ENTITIES
  0
LINE
  5
4A
330
1F
100
AcDbEntity
  8
1
  6
Continuous
 62
     4
100
AcDbLine
 10
273.732294275019
 20
272.813352191742
 30
0.0
 11
273.732294275019
 21
270.313352191742
 31
0.0
  0
LINE
  5
4B
330
1F
100
AcDbEntity
  8
1
  6
Continuous
 62
     4
100
AcDbLine
 10
273.482294275019
 20
274.313352191742
 30
0.0
 11
273.732294275019
 21
272.813352191742
 31
0.0
  0
LINE
  5
4C
330
1F
100
AcDbEntity
  8
1
  6
Continuous
 62
     4
100
AcDbLine
 10
272.982294275019
 20
275.313352191742
 30
0.0
 11
273.482294275019
 21
274.313352191742
 31
0.0
  0
LINE
  5
4D
330
1F
100
AcDbEntity
  8
1
  6
Continuous
 62
     4
100
AcDbLine
 10
272.482294275019
 20
275.813352191742
 30
0.0
 11
272.982294275019
 21
275.313352191742
 31
0.0
  0
LINE
  5
4E
330
1F
100
AcDbEntity
  8
1
  6
Continuous
 62
     4
100
AcDbLine
 10
271.732294275019
 20
276.313352191742
 30
0.0
 11
272.482294275019
 21
275.813352191742
 31
0.0
  0
LINE
  5
4F
330
1F
100
AcDbEntity
  8
1
  6
Continuous
 62
     4
100
AcDbLine
 10
270.982294275019
 20
276.563352191742
 30
0.0
 11
271.732294275019
 21
276.313352191742
 31
0.0
  0
LINE
  5
50
330
1F
100
AcDbEntity
  8
1
  6
Continuous
 62
     4
100
AcDbLine
 10
270.482294275019
 20
276.563352191742
 30
0.0
 11
270.982294275019
 21
276.563352191742
 31
0.0
  0
LINE
  5
51
330
1F
100
AcDbEntity
  8
1
  6
Continuous
 62
     4
100
AcDbLine
 10
269.732294275019
 20
276.313352191742
 30
0.0
 11
270.482294275019
 21
276.563352191742
 31
0.0
  0
LINE
  5
52
330
1F
100
AcDbEntity
  8
1
  6
Continuous
 62
     4
100
AcDbLine
 10
268.982294275019
 20
275.813352191742
 30
0.0
 11
269.732294275019
 21
276.313352191742
 31
0.0
  0
LINE
  5
53
330
1F
100
AcDbEntity
  8
1
  6
Continuous
 62
     4
100
AcDbLine
 10
268.482294275019
 20
275.313352191742
 30
0.0
 11
268.982294275019
 21
275.813352191742
 31
0.0
  0
LINE
  5
54
330
1F
100
AcDbEntity
  8
1
  6
Continuous
 62
     4
100
AcDbLine
 10
267.982294275019
 20
274.313352191742
 30
0.0
 11
268.482294275019
 21
275.313352191742
 31
0.0
  0
LINE
  5
55
330
1F
100
AcDbEntity
  8
1
  6
Continuous
 62
     4
100
AcDbLine
 10
267.732294275019
 20
272.813352191742
 30
0.0
 11
267.982294275019
 21
274.313352191742
 31
0.0
  0
LINE
  5
56
330
1F
100
AcDbEntity
  8
1
  6
Continuous
 62
     4
100
AcDbLine
 10
267.732294275019
 20
270.313352191742
 30
0.0
 11
267.732294275019
 21
272.813352191742
 31
0.0
  0
LINE
  5
57
330
1F
100
AcDbEntity
  8
1
  6
Continuous
 62
     4
100
AcDbLine
 10
267.982294275019
 20
268.813352191742
 30
0.0
 11
267.732294275019
 21
270.313352191742
 31
0.0
  0
LINE
  5
58
330
1F
100
AcDbEntity
  8
1
  6
Continuous
 62
     4
100
AcDbLine
 10
268.482294275019
 20
267.813352191742
 30
0.0
 11
267.982294275019
 21
268.813352191742
 31
0.0
  0
LINE
  5
59
330
1F
100
AcDbEntity
  8
1
  6
Continuous
 62
     4
100
AcDbLine
 10
268.982294275019
 20
267.313352191742
 30
0.0
 11
268.482294275019
 21
267.813352191742
 31
0.0
  0
LINE
  5
5A
330
1F
100
AcDbEntity
  8
1
  6
Continuous
 62
     4
100
AcDbLine
 10
269.732294275019
 20
266.813352191742
 30
0.0
 11
268.982294275019
 21
267.313352191742
 31
0.0
  0
LINE
  5
5B
330
1F
100
AcDbEntity
  8
1
  6
Continuous
 62
     4
100
AcDbLine
 10
270.482294275019
 20
266.563352191742
 30
0.0
 11
269.732294275019
 21
266.813352191742
 31
0.0
  0
LINE
  5
5C
330
1F
100
AcDbEntity
  8
1
  6
Continuous
 62
     4
100
AcDbLine
 10
270.982294275019
 20
266.563352191742
 30
0.0
 11
270.482294275019
 21
266.563352191742
 31
0.0
  0
LINE
  5
5D
330
1F
100
AcDbEntity
  8
1
  6
Continuous
 62
     4
100
AcDbLine
 10
271.732294275019
 20
266.813352191742
 30
0.0
 11
270.982294275019
 21
266.563352191742
 31
0.0
  0
LINE
  5
5E
330
1F
100
AcDbEntity
  8
1
  6
Continuous
 62
     4
100
AcDbLine
 10
272.482294275019
 20
267.313352191742
 30
0.0
 11
271.732294275019
 21
266.813352191742
 31
0.0
  0
LINE
  5
5F
330
1F
100
AcDbEntity
  8
1
  6
Continuous
 62
     4
100
AcDbLine
 10
272.982294275019
 20
267.813352191742
 30
0.0
 11
272.482294275019
 21
267.313352191742
 31
0.0
  0
LINE
  5
60
330
1F
100
AcDbEntity
  8
1
  6
Continuous
 62
     4
100
AcDbLine
 10
273.482294275019
 20
268.813352191742
 30
0.0
 11
272.982294275019
 21
267.813352191742
 31
0.0
  0
LINE
  5
61
330
1F
100
AcDbEntity
  8
1
  6
Continuous
 62
     4
100
AcDbLine
 10
273.732294275019
 20
270.313352191742
 30
0.0
 11
273.482294275019
 21
268.813352191742
 31
0.0
  0
LINE
  5
62
330
1F
100
AcDbEntity
  8
1
  6
Continuous
 62
     4
100
AcDbLine
 10
262.482294275019
 20
266.563352191742
 30
0.0
 11
258.732294275019
 21
266.563352191742
 31
0.0
  0
LINE
  5
63
330
1F
100
AcDbEntity
  8
1
  6
Continuous
 62
     4
100
AcDbLine
 10
263.232294275019
 20
266.813352191742
 30
0.0
 11
262.482294275019
 21
266.563352191742
 31
0.0
  0
LINE
  5
64
330
1F
100
AcDbEntity
  8
1
  6
Continuous
 62
     4
100
AcDbLine
 10
263.982294275019
 20
267.313352191742
 30
0.0
 11
263.232294275019
 21
266.813352191742
 31
0.0
  0
LINE
  5
65
330
1F
100
AcDbEntity
  8
1
  6
Continuous
 62
     4
100
AcDbLine
 10
264.482294275019
 20
268.063352191742
 30
0.0
 11
263.982294275019
 21
267.313352191742
 31
0.0
  0
LINE
  5
66
330
1F
100
AcDbEntity
  8
1
  6
Continuous
 62
     4
100
AcDbLine
 10
264.732294275019
 20
269.063352191742
 30
0.0
 11
264.482294275019
 21
268.063352191742
 31
0.0
  0
LINE
  5
67
330
1F
100
AcDbEntity
  8
1
  6
Continuous
 62
     4
100
AcDbLine
 10
264.732294275019
 20
270.563352191742
 30
0.0
 11
264.732294275019
 21
269.063352191742
 31
0.0
  0
LINE
  5
68
330
1F
100
AcDbEntity
  8
1
  6
Continuous
 62
     4
100
AcDbLine
 10
264.482294275019
 20
271.563352191742
 30
0.0
 11
264.732294275019
 21
270.563352191742
 31
0.0
  0
LINE
  5
69
330
1F
100
AcDbEntity
  8
1
  6
Continuous
 62
     4
100
AcDbLine
 10
263.732294275019
 20
272.313352191742
 30
0.0
 11
264.482294275019
 21
271.563352191742
 31
0.0
  0
LINE
  5
6A
330
1F
100
AcDbEntity
  8
1
  6
Continuous
 62
     4
100
AcDbLine
 10
262.482294275019
 20
272.563352191742
 30
0.0
 11
263.732294275019
 21
272.313352191742
 31
0.0
  0
LINE
  5
6B
330
1F
100
AcDbEntity
  8
1
  6
Continuous
 62
     4
100
AcDbLine
 10
258.732294275019
 20
272.563352191742
 30
0.0
 11
262.482294275019
 21
272.563352191742
 31
0.0
  0
LINE
  5
6C
330
1F
100
AcDbEntity
  8
1
  6
Continuous
 62
     4
100
AcDbLine
 10
258.732294275019
 20
276.563352191742
 30
0.0
 11
258.732294275019
 21
272.563352191742
 31
0.0
  0
LINE
  5
6D
330
1F
100
AcDbEntity
  8
1
  6
Continuous
 62
     4
100
AcDbLine
 10
264.232294275019
 20
276.563352191742
 30
0.0
 11
258.732294275019
 21
276.563352191742
 31
0.0
  0
LINE
  5
6E
330
1F
100
AcDbEntity
  8
1
  6
Continuous
 62
     4
100
AcDbLine
 10
250.732294275019
 20
270.063352191742
 30
0.0
 11
255.732294275019
 21
270.063352191742
 31
0.0
  0
LINE
  5
6F
330
1F
100
AcDbEntity
  8
1
  6
Continuous
 62
     4
100
AcDbLine
 10
240.732294275019
 20
272.063352191742
 30
0.0
 11
240.732294275019
 21
271.563352191742
 31
0.0
  0
LINE
  5
70
330
1F
100
AcDbEntity
  8
1
  6
Continuous
 62
     4
100
AcDbLine
 10
247.732294275019
 20
272.063352191742
 30
0.0
 11
247.732294275019
 21
266.563352191742
 31
0.0
  0
LINE
  5
71
330
1F
100
AcDbEntity
  8
1
  6
Continuous
 62
     4
100
AcDbLine
 10
240.732294275019
 20
271.563352191742
 30
0.0
 11
240.732294275019
 21
266.563352191742
 31
0.0
  0
LINE
  5
72
330
1F
100
AcDbEntity
  8
1
  6
Continuous
 62
     4
100
AcDbLine
 10
240.732294275019
 20
276.563352191742
 30
0.0
 11
240.732294275019
 21
272.063352191742
 31
0.0
  0
LINE
  5
73
330
1F
100
AcDbEntity
  8
1
  6
Continuous
 62
     4
100
AcDbLine
 10
240.732294275019
 20
272.063352191742
 30
0.0
 11
247.732294275019
 21
272.063352191742
 31
0.0
  0
LINE
  5
74
330
1F
100
AcDbEntity
  8
1
  6
Continuous
 62
     4
100
AcDbLine
 10
247.732294275019
 20
276.563352191742
 30
0.0
 11
247.732294275019
 21
272.063352191742
 31
0.0
  0
LINE
  5
75
330
1F
100
AcDbEntity
  8
1
  6
Continuous
 62
     4
100
AcDbLine
 10
231.232294275019
 20
272.063352191742
 30
0.0
 11
231.232294275019
 21
276.563352191742
 31
0.0
  0
LINE
  5
76
330
1F
100
AcDbEntity
  8
1
  6
Continuous
 62
     4
100
AcDbLine
 10
235.982294275019
 20
272.313352191742
 30
0.0
 11
235.232294275019
 21
272.063352191742
 31
0.0
  0
LINE
  5
77
330
1F
100
AcDbEntity
  8
1
  6
Continuous
 62
     4
100
AcDbLine
 10
236.732294275019
 20
272.813352191742
 30
0.0
 11
235.982294275019
 21
272.313352191742
 31
0.0
  0
LINE
  5
78
330
1F
100
AcDbEntity
  8
1
  6
Continuous
 62
     4
100
AcDbLine
 10
237.232294275019
 20
273.813352191742
 30
0.0
 11
236.732294275019
 21
272.813352191742
 31
0.0
  0
LINE
  5
79
330
1F
100
AcDbEntity
  8
1
  6
Continuous
 62
     4
100
AcDbLine
 10
237.232294275019
 20
274.563352191742
 30
0.0
 11
237.232294275019
 21
273.813352191742
 31
0.0
  0
LINE
  5
7A
330
1F
100
AcDbEntity
  8
1
  6
Continuous
 62
     4
100
AcDbLine
 10
236.982294275019
 20
275.563352191742
 30
0.0
 11
237.232294275019
 21
274.563352191742
 31
0.0
  0
LINE
  5
7B
330
1F
100
AcDbEntity
  8
1
  6
Continuous
 62
     4
100
AcDbLine
 10
236.232294275019
 20
276.313352191742
 30
0.0
 11
236.982294275019
 21
275.563352191742
 31
0.0
  0
LINE
  5
7C
330
1F
100
AcDbEntity
  8
1
  6
Continuous
 62
     4
100
AcDbLine
 10
234.982294275019
 20
276.563352191742
 30
0.0
 11
236.232294275019
 21
276.313352191742
 31
0.0
  0
LINE
  5
7D
330
1F
100
AcDbEntity
  8
1
  6
Continuous
 62
     4
100
AcDbLine
 10
231.232294275019
 20
276.563352191742
 30
0.0
 11
234.982294275019
 21
276.563352191742
 31
0.0
  0
LINE
  5
7E
330
1F
100
AcDbEntity
  8
1
  6
Continuous
 62
     4
100
AcDbLine
 10
231.232294275019
 20
266.563352191742
 30
0.0
 11
231.232294275019
 21
272.063352191742
 31
0.0
  0
LINE
  5
7F
330
1F
100
AcDbEntity
  8
1
  6
Continuous
 62
     4
100
AcDbLine
 10
235.732294275019
 20
266.563352191742
 30
0.0
 11
231.232294275019
 21
266.563352191742
 31
0.0
  0
LINE
  5
80
330
1F
100
AcDbEntity
  8
1
  6
Continuous
 62
     4
100
AcDbLine
 10
236.732294275019
 20
267.063352191742
 30
0.0
 11
235.732294275019
 21
266.563352191742
 31
0.0
  0
LINE
  5
81
330
1F
100
AcDbEntity
  8
1
  6
Continuous
 62
     4
100
AcDbLine
 10
237.232294275019
 20
267.563352191742
 30
0.0
 11
236.732294275019
 21
267.063352191742
 31
0.0
  0
LINE
  5
82
330
1F
100
AcDbEntity
  8
1
  6
Continuous
 62
     4
100
AcDbLine
 10
237.732294275019
 20
268.563352191742
 30
0.0
 11
237.232294275019
 21
267.563352191742
 31
0.0
  0
LINE
  5
83
330
1F
100
AcDbEntity
  8
1
  6
Continuous
 62
     4
100
AcDbLine
 10
237.732294275019
 20
269.813352191742
 30
0.0
 11
237.732294275019
 21
268.563352191742
 31
0.0
  0
LINE
  5
84
330
1F
100
AcDbEntity
  8
1
  6
Continuous
 62
     4
100
AcDbLine
 10
237.232294275019
 20
271.063352191742
 30
0.0
 11
237.732294275019
 21
269.813352191742
 31
0.0
  0
LINE
  5
85
330
1F
100
AcDbEntity
  8
1
  6
Continuous
 62
     4
100
AcDbLine
 10
236.732294275019
 20
271.563352191742
 30
0.0
 11
237.232294275019
 21
271.063352191742
 31
0.0
  0
LINE
  5
86
330
1F
100
AcDbEntity
  8
1
  6
Continuous
 62
     4
100
AcDbLine
 10
235.732294275019
 20
272.063352191742
 30
0.0
 11
236.732294275019
 21
271.563352191742
 31
0.0
  0
LINE
  5
87
330
1F
100
AcDbEntity
  8
1
  6
Continuous
 62
     4
100
AcDbLine
 10
235.232294275019
 20
272.063352191742
 30
0.0
 11
235.732294275019
 21
272.063352191742
 31
0.0
  0
LINE
  5
88
330
1F
100
AcDbEntity
  8
1
  6
Continuous
 62
     4
100
AcDbLine
 10
231.232294275019
 20
272.063352191742
 30
0.0
 11
235.232294275019
 21
272.063352191742
 31
0.0
  0
LINE
  5
89
330
1F
100
AcDbEntity
  8
1
  6
Continuous
 62
     4
100
AcDbLine
 10
11.8784173399725
 20
-167.516148265252
 30
0.0
 11
11.3784173399725
 21
-168.141148265252
 31
0.0
  0
LINE
  5
8A
330
1F
100
AcDbEntity
  8
1
  6
Continuous
 62
     4
100
AcDbLine
 10
11.3784173399725
 20
-166.891148265252
 30
0.0
 11
11.8784173399725
 21
-167.516148265252
 31
0.0
  0
LINE
  5
8B
330
1F
100
AcDbEntity
  8
1
  6
Continuous
 62
     4
100
AcDbLine
 10
8.1284173399725
 20
-167.516148265252
 30
0.0
 11
11.8784173399725
 21
-167.516148265252
 31
0.0
  0
LINE
  5
8C
330
1F
100
AcDbEntity
  8
1
  6
Continuous
 62
     4
100
AcDbLine
 10
4.0034173399725
 20
-166.078648265252
 30
0.0
 11
6.8784173399725
 21
-166.078648265252
 31
0.0
  0
LINE
  5
8D
330
1F
100
AcDbEntity
  8
1
  6
Continuous
 62
     4
100
AcDbLine
 10
4.0034173399725
 20
-166.078648265252
 30
0.0
 11
4.6909173399725
 21
-165.141148265252
 31
0.0
  0
LINE
  5
8E
330
1F
100
AcDbEntity
  8
1
  6
Continuous
 62
     4
100
AcDbLine
 10
5.6284173399725
 20
-168.453648265252
 30
0.0
 11
4.5659173399725
 21
-168.453648265252
 31
0.0
  0
LINE
  5
8F
330
1F
100
AcDbEntity
  8
1
  6
Continuous
 62
     4
100
AcDbLine
 10
5.6284173399725
 20
-167.203648265252
 30
0.0
 11
5.6284173399725
 21
-168.453648265252
 31
0.0
  0
LINE
  5
90
330
1F
100
AcDbEntity
  8
1
  6
Continuous
 62
     4
100
AcDbLine
 10
4.5659173399725
 20
-167.203648265252
 30
0.0
 11
5.6284173399725
 21
-167.203648265252
 31
0.0
  0
LINE
  5
91
330
1F
100
AcDbEntity
  8
1
  6
Continuous
 62
     4
100
AcDbLine
 10
4.5659173399725
 20
-168.453648265252
 30
0.0
 11
4.5659173399725
 21
-167.203648265252
 31
0.0
  0
LINE
  5
92
330
1F
100
AcDbEntity
  8
1
  6
Continuous
 62
     4
100
AcDbLine
 10
6.8784173399725
 20
-169.828648265252
 30
0.0
 11
6.1909173399725
 21
-169.828648265252
 31
0.0
  0
LINE
  5
93
330
1F
100
AcDbEntity
  8
1
  6
Continuous
 62
     4
100
AcDbLine
 10
6.8784173399725
 20
-166.078648265252
 30
0.0
 11
6.8784173399725
 21
-169.828648265252
 31
0.0
  0
LINE
  5
94
330
1F
100
AcDbEntity
  8
1
  6
Continuous
 62
     4
100
AcDbLine
 10
3.3159173399725
 20
-166.078648265252
 30
0.0
 11
4.0034173399725
 21
-166.078648265252
 31
0.0
  0
LINE
  5
95
330
1F
100
AcDbEntity
  8
1
  6
Continuous
 62
     4
100
AcDbLine
 10
3.3159173399725
 20
-169.828648265252
 30
0.0
 11
3.3159173399725
 21
-166.078648265252
 31
0.0
  0
LINE
  5
96
330
1F
100
AcDbEntity
  8
1
  6
Continuous
 62
     4
100
AcDbLine
 10
0.6284173399725
 20
-170.016148265252
 30
0.0
 11
0.1284173399725
 21
-169.703648265252
 31
0.0
  0
LINE
  5
97
330
1F
100
AcDbEntity
  8
1
  6
Continuous
 62
     4
100
AcDbLine
 10
0.9409173399725
 20
-169.516148265252
 30
0.0
 11
0.6284173399725
 21
-170.016148265252
 31
0.0
  0
LINE
  5
98
330
1F
100
AcDbEntity
  8
1
  6
Continuous
 62
     4
100
AcDbLine
 10
1.1909173399725
 20
-168.766148265252
 30
0.0
 11
0.9409173399725
 21
-169.516148265252
 31
0.0
  0
LINE
  5
99
330
1F
100
AcDbEntity
  8
1
  6
Continuous
 62
     4
100
AcDbLine
 10
1.5034173399725
 20
-167.641148265252
 30
0.0
 11
1.1909173399725
 21
-168.766148265252
 31
0.0
  0
LINE
  5
9A
330
1F
100
AcDbEntity
  8
1
  6
Continuous
 62
     4
100
AcDbLine
 10
1.5034173399725
 20
-167.203648265252
 30
0.0
 11
1.5034173399725
 21
-167.641148265252
 31
0.0
  0
LINE
  5
9B
330
1F
100
AcDbEntity
  8
1
  6
Continuous
 62
     4
100
AcDbLine
 10
-0.3090826600275
 20
-167.203648265252
 30
0.0
 11
1.5034173399725
 21
-167.203648265252
 31
0.0
  0
LINE
  5
9C
330
1F
100
AcDbEntity
  8
1
  6
Continuous
 62
     4
100
AcDbLine
 10
-1.9965826600275
 20
-165.953648265252
 30
0.0
 11
2.1909173399725
 21
-165.953648265252
 31
0.0
  0
LINE
  5
9D
330
1F
100
AcDbEntity
  8
1
  6
Continuous
 62
     4
100
AcDbLine
 10
-0.1840826600275
 20
-166.391148265252
 30
0.0
 11
-0.0590826600275
 21
-165.141148265252
 31
0.0
  0
LINE
  5
9E
330
1F
100
AcDbEntity
  8
1
  6
Continuous
 62
     4
100
AcDbLine
 10
-0.4340826600275
 20
-167.641148265252
 30
0.0
 11
-0.1840826600275
 21
-166.391148265252
 31
0.0
  0
LINE
  5
9F
330
1F
100
AcDbEntity
  8
1
  6
Continuous
 62
     4
100
AcDbLine
 10
-0.7465826600275
 20
-168.453648265252
 30
0.0
 11
-0.4340826600275
 21
-167.641148265252
 31
0.0
  0
LINE
  5
A0
330
1F
100
AcDbEntity
  8
1
  6
Continuous
 62
     4
100
AcDbLine
 10
-1.1215826600275
 20
-169.203648265252
 30
0.0
 11
-0.7465826600275
 21
-168.453648265252
 31
0.0
  0
LINE
  5
A1
330
1F
100
AcDbEntity
  8
1
  6
Continuous
 62
     4
100
AcDbLine
 10
-1.6840826600275
 20
-169.828648265252
 30
0.0
 11
-1.1215826600275
 21
-169.203648265252
 31
0.0
  0
LINE
  5
A2
330
1F
100
AcDbEntity
  8
1
  6
Continuous
 62
     4
100
AcDbLine
 10
-3.3715826600275
 20
-168.453648265252
 30
0.0
 11
-2.6840826600275
 21
-169.203648265252
 31
0.0
  0
LINE
  5
A3
330
1F
100
AcDbEntity
  8
1
  6
Continuous
 62
     4
100
AcDbLine
 10
-3.9340826600275
 20
-167.516148265252
 30
0.0
 11
-3.3715826600275
 21
-168.453648265252
 31
0.0
  0
LINE
  5
A4
330
1F
100
AcDbEntity
  8
1
  6
Continuous
 62
     4
100
AcDbLine
 10
-4.3715826600275
 20
-166.391148265252
 30
0.0
 11
-3.9340826600275
 21
-167.516148265252
 31
0.0
  0
LINE
  5
A5
330
1F
100
AcDbEntity
  8
1
  6
Continuous
 62
     4
100
AcDbLine
 10
-3.1215826600275
 20
-166.266148265252
 30
0.0
 11
-4.0590826600275
 21
-167.016148265252
 31
0.0
  0
LINE
  5
A6
330
1F
100
AcDbEntity
  8
1
  6
Continuous
 62
     4
100
AcDbLine
 10
-4.7465826600275
 20
-170.016148265252
 30
0.0
 11
-5.1840826600275
 21
-169.828648265252
 31
0.0
  0
LINE
  5
A7
330
1F
100
AcDbEntity
  8
1
  6
Continuous
 62
     4
100
AcDbLine
 10
-4.7465826600275
 20
-165.141148265252
 30
0.0
 11
-4.7465826600275
 21
-170.016148265252
 31
0.0
  0
LINE
  5
A8
330
1F
100
AcDbEntity
  8
1
  6
Continuous
 62
     4
100
AcDbLine
 10
-5.4340826600275
 20
-166.703648265252
 30
0.0
 11
-6.8715826600275
 21
-166.703648265252
 31
0.0
  0
LINE
  5
A9
330
1F
100
AcDbEntity
  8
1
  6
Continuous
 62
     4
100
AcDbLine
 10
-5.7465826600275
 20
-167.641148265252
 30
0.0
 11
-5.4340826600275
 21
-166.703648265252
 31
0.0
  0
LINE
  5
AA
330
1F
100
AcDbEntity
  8
1
  6
Continuous
 62
     4
100
AcDbLine
 10
-6.3090826600275
 20
-168.578648265252
 30
0.0
 11
-5.7465826600275
 21
-167.641148265252
 31
0.0
  0
LINE
  5
AB
330
1F
100
AcDbEntity
  8
1
  6
Continuous
 62
     4
100
AcDbLine
 10
-6.8715826600275
 20
-169.203648265252
 30
0.0
 11
-6.3090826600275
 21
-168.578648265252
 31
0.0
  0
LINE
  5
AC
330
1F
100
AcDbEntity
  8
1
  6
Continuous
 62
     4
100
AcDbLine
 10
-9.6215826600275
 20
-165.766148265252
 30
0.0
 11
-7.9340826600275
 21
-165.766148265252
 31
0.0
  0
LINE
  5
AD
330
1F
100
AcDbEntity
  8
1
  6
Continuous
 62
     4
100
AcDbLine
 10
-7.6840826600275
 20
-169.516148265252
 30
0.0
 11
-7.6840826600275
 21
-169.203648265252
 31
0.0
  0
LINE
  5
AE
330
1F
100
AcDbEntity
  8
1
  6
Continuous
 62
     4
100
AcDbLine
 10
-7.9340826600275
 20
-169.828648265252
 30
0.0
 11
-7.6840826600275
 21
-169.516148265252
 31
0.0
  0
LINE
  5
AF
330
1F
100
AcDbEntity
  8
1
  6
Continuous
 62
     4
100
AcDbLine
 10
-8.4965826600275
 20
-169.828648265252
 30
0.0
 11
-7.9340826600275
 21
-169.828648265252
 31
0.0
  0
LINE
  5
B0
330
1F
100
AcDbEntity
  8
1
  6
Continuous
 62
     4
100
AcDbLine
 10
-8.8090826600275
 20
-169.391148265252
 30
0.0
 11
-8.4965826600275
 21
-169.828648265252
 31
0.0
  0
LINE
  5
B1
330
1F
100
AcDbEntity
  8
1
  6
Continuous
 62
     4
100
AcDbLine
 10
-8.8090826600275
 20
-167.828648265252
 30
0.0
 11
-8.8090826600275
 21
-169.391148265252
 31
0.0
  0
LINE
  5
B2
330
1F
100
AcDbEntity
  8
1
  6
Continuous
 62
     4
100
AcDbLine
 10
-9.6215826600275
 20
-169.828648265252
 30
0.0
 11
-9.6215826600275
 21
-167.828648265252
 31
0.0
  0
LINE
  5
B3
330
1F
100
AcDbEntity
  8
1
  6
Continuous
 62
     4
100
AcDbLine
 10
-10.8715826600275
 20
-169.703648265252
 30
0.0
 11
-11.3090826600275
 21
-170.016148265252
 31
0.0
  0
LINE
  5
B4
330
1F
100
AcDbEntity
  8
1
  6
Continuous
 62
     4
100
AcDbLine
 10
-10.6215826600275
 20
-169.391148265252
 30
0.0
 11
-10.8715826600275
 21
-169.703648265252
 31
0.0
  0
LINE
  5
B5
330
1F
100
AcDbEntity
  8
1
  6
Continuous
 62
     4
100
AcDbLine
 10
-10.4340826600275
 20
-168.891148265252
 30
0.0
 11
-10.6215826600275
 21
-169.391148265252
 31
0.0
  0
LINE
  5
B6
330
1F
100
AcDbEntity
  8
1
  6
Continuous
 62
     4
100
AcDbLine
 10
-10.3090826600275
 20
-167.828648265252
 30
0.0
 11
-10.4340826600275
 21
-168.891148265252
 31
0.0
  0
LINE
  5
B7
330
1F
100
AcDbEntity
  8
1
  6
Continuous
 62
     4
100
AcDbLine
 10
-8.9340826600275
 20
-166.266148265252
 30
0.0
 11
-8.3715826600275
 21
-167.328648265252
 31
0.0
  0
LINE
  5
B8
330
1F
100
AcDbEntity
  8
1
  6
Continuous
 62
     4
100
AcDbLine
 10
-10.7465826600275
 20
-167.016148265252
 30
0.0
 11
-8.6215826600275
 21
-166.891148265252
 31
0.0
  0
LINE
  5
B9
330
1F
100
AcDbEntity
  8
1
  6
Continuous
 62
     4
100
AcDbLine
 10
-9.6215826600275
 20
-165.766148265252
 30
0.0
 11
-10.1840826600275
 21
-167.016148265252
 31
0.0
  0
LINE
  5
BA
330
1F
100
AcDbEntity
  8
1
  6
Continuous
 62
     4
100
AcDbLine
 10
-9.4965826600275
 20
-165.016148265252
 30
0.0
 11
-9.4965826600275
 21
-165.766148265252
 31
0.0
  0
LINE
  5
BB
330
1F
100
AcDbEntity
  8
1
  6
Continuous
 62
     4
100
AcDbLine
 10
-10.9965826600275
 20
-165.766148265252
 30
0.0
 11
-9.6215826600275
 21
-165.766148265252
 31
0.0
  0
LINE
  5
BC
330
1F
100
AcDbEntity
  8
1
  6
Continuous
 62
     4
100
AcDbLine
 10
-11.9965826600275
 20
-169.828648265252
 30
0.0
 11
-11.4340826600275
 21
-167.828648265252
 31
0.0
  0
LINE
  5
BD
330
1F
100
AcDbEntity
  8
1
  6
Continuous
 62
     4
100
AcDbLine
 10
-12.1215826600275
 20
-166.578648265252
 30
0.0
 11
-11.6840826600275
 21
-167.016148265252
 31
0.0
  0
LINE
  5
BE
330
1F
100
AcDbEntity
  8
1
  6
Continuous
 62
     4
100
AcDbLine
 10
-11.6840826600275
 20
-165.141148265252
 30
0.0
 11
-11.4340826600275
 21
-165.641148265252
 31
0.0
  0
LINE
  5
BF
330
1F
100
AcDbEntity
  8
1
  6
Continuous
 62
     4
100
AcDbLine
 10
177.266647338867
 20
-50.8904571533203
 30
0.0
 11
178.266647338867
 21
-51.5154571533203
 31
0.0
  0
LINE
  5
C0
330
1F
100
AcDbEntity
  8
1
  6
Continuous
 62
     4
100
AcDbLine
 10
178.641647338867
 20
-50.5779571533203
 30
0.0
 11
177.829147338867
 21
-49.9529571533203
 31
0.0
  0
LINE
  5
C1
330
1F
100
AcDbEntity
  8
1
  6
Continuous
 62
     4
100
AcDbLine
 10
179.329147338867
 20
-49.8279571533203
 30
0.0
 11
179.766647338867
 21
-50.2654571533203
 31
0.0
  0
LINE
  5
C2
330
1F
100
AcDbEntity
  8
1
  6
Continuous
 62
     4
100
AcDbLine
 10
180.079147338867
 20
-49.9529571533203
 30
0.0
 11
179.641647338867
 21
-49.5154571533203
 31
0.0
  0
LINE
  5
C3
330
1F
100
AcDbEntity
  8
1
  6
Continuous
 62
     4
100
AcDbLine
 10
179.766647338867
 20
-51.8279571533203
 30
0.0
 11
180.454147338867
 21
-50.8904571533203
 31
0.0
  0
LINE
  5
C4
330
1F
100
AcDbEntity
  8
1
  6
Continuous
 62
     4
100
AcDbLine
 10
178.641647338867
 20
-52.7654571533203
 30
0.0
 11
179.766647338867
 21
-51.8279571533203
 31
0.0
  0
LINE
  5
C5
330
1F
100
AcDbEntity
  8
1
  6
Continuous
 62
     4
100
AcDbLine
 10
177.579147338867
 20
-53.3904571533203
 30
0.0
 11
178.641647338867
 21
-52.7654571533203
 31
0.0
  0
LINE
  5
C6
330
1F
100
AcDbEntity
  8
1
  6
Continuous
 62
     4
100
AcDbLine
 10
174.891647338867
 20
-52.0154571533203
 30
0.0
 11
175.329147338867
 21
-52.6404571533203
 31
0.0
  0
LINE
  5
C7
330
1F
100
AcDbEntity
  8
1
  6
Continuous
 62
     4
100
AcDbLine
 10
174.329147338867
 20
-51.5154571533203
 30
0.0
 11
174.891647338867
 21
-52.0154571533203
 31
0.0
  0
LINE
  5
C8
330
1F
100
AcDbEntity
  8
1
  6
Continuous
 62
     4
100
AcDbLine
 10
173.954147338867
 20
-49.5154571533203
 30
0.0
 11
174.204147338867
 21
-49.8279571533203
 31
0.0
  0
LINE
  5
C9
330
1F
100
AcDbEntity
  8
1
  6
Continuous
 62
     4
100
AcDbLine
 10
173.391647338867
 20
-49.2029571533203
 30
0.0
 11
173.954147338867
 21
-49.5154571533203
 31
0.0
  0
LINE
  5
CA
330
1F
100
AcDbEntity
  8
1
  6
Continuous
 62
     4
100
AcDbLine
 10
174.641647338867
 20
-50.4529571533203
 30
0.0
 11
172.704147338867
 21
-50.4529571533203
 31
0.0
  0
LINE
  5
CB
330
1F
100
AcDbEntity
  8
1
  6
Continuous
 62
     4
100
AcDbLine
 10
173.641647338867
 20
-51.5154571533203
 30
0.0
 11
174.641647338867
 21
-50.4529571533203
 31
0.0
  0
LINE
  5
CC
330
1F
100
AcDbEntity
  8
1
  6
Continuous
 62
     4
100
AcDbLine
 10
172.266647338867
 20
-52.4529571533203
 30
0.0
 11
173.641647338867
 21
-51.5154571533203
 31
0.0
  0
LINE
  5
CD
330
1F
100
AcDbEntity
  8
1
  6
Continuous
 62
     4
100
AcDbLine
 10
173.829147338867
 20
-53.3904571533203
 30
0.0
 11
173.829147338867
 21
-51.3904571533203
 31
0.0
  0
LINE
  5
CE
330
1F
100
AcDbEntity
  8
1
  6
Continuous
 62
     4
100
AcDbLine
 10
167.079147338867
 20
-53.8904571533203
 30
0.0
 11
170.079147338867
 21
-53.8904571533203
 31
0.0
  0
LINE
  5
CF
330
1F
100
AcDbEntity
  8
1
  6
Continuous
 62
     4
100
AcDbLine
 10
169.829147338867
 20
-50.6404571533203
 30
0.0
 11
167.079147338867
 21
-53.8904571533203
 31
0.0
  0
LINE
  5
D0
330
1F
100
AcDbEntity
  8
1
  6
Continuous
 62
     4
100
AcDbLine
 10
170.079147338867
 20
-50.1404571533203
 30
0.0
 11
169.829147338867
 21
-50.6404571533203
 31
0.0
  0
LINE
  5
D1
330
1F
100
AcDbEntity
  8
1
  6
Continuous
 62
     4
100
AcDbLine
 10
170.079147338867
 20
-49.6404571533203
 30
0.0
 11
170.079147338867
 21
-50.1404571533203
 31
0.0
  0
LINE
  5
D2
330
1F
100
AcDbEntity
  8
1
  6
Continuous
 62
     4
100
AcDbLine
 10
169.829147338867
 20
-49.2654571533203
 30
0.0
 11
170.079147338867
 21
-49.6404571533203
 31
0.0
  0
LINE
  5
D3
330
1F
100
AcDbEntity
  8
1
  6
Continuous
 62
     4
100
AcDbLine
 10
169.454147338867
 20
-49.0154571533203
 30
0.0
 11
169.829147338867
 21
-49.2654571533203
 31
0.0
  0
LINE
  5
D4
330
1F
100
AcDbEntity
  8
1
  6
Continuous
 62
     4
100
AcDbLine
 10
168.954147338867
 20
-48.8904571533203
 30
0.0
 11
169.454147338867
 21
-49.0154571533203
 31
0.0
  0
LINE
  5
D5
330
1F
100
AcDbEntity
  8
1
  6
Continuous
 62
     4
100
AcDbLine
 10
168.204147338867
 20
-48.8904571533203
 30
0.0
 11
168.954147338867
 21
-48.8904571533203
 31
0.0
  0
LINE
  5
D6
330
1F
100
AcDbEntity
  8
1
  6
Continuous
 62
     4
100
AcDbLine
 10
167.704147338867
 20
-49.0154571533203
 30
0.0
 11
168.204147338867
 21
-48.8904571533203
 31
0.0
  0
LINE
  5
D7
330
1F
100
AcDbEntity
  8
1
  6
Continuous
 62
     4
100
AcDbLine
 10
167.329147338867
 20
-49.2654571533203
 30
0.0
 11
167.704147338867
 21
-49.0154571533203
 31
0.0
  0
LINE
  5
D8
330
1F
100
AcDbEntity
  8
1
  6
Continuous
 62
     4
100
AcDbLine
 10
167.079147338867
 20
-49.6404571533203
 30
0.0
 11
167.329147338867
 21
-49.2654571533203
 31
0.0
  0
LINE
  5
D9
330
1F
100
AcDbEntity
  8
1
  6
Continuous
 62
     4
100
AcDbLine
 10
162.079147338867
 20
-53.8904571533203
 30
0.0
 11
162.079147338867
 21
-51.3904571533203
 31
0.0
  0
LINE
  5
DA
330
1F
100
AcDbEntity
  8
1
  6
Continuous
 62
     4
100
AcDbLine
 10
164.079147338867
 20
-51.3904571533203
 30
0.0
 11
165.579147338867
 21
-53.8904571533203
 31
0.0
  0
LINE
  5
DB
330
1F
100
AcDbEntity
  8
1
  6
Continuous
 62
     4
100
AcDbLine
 10
164.454147338867
 20
-51.3904571533203
 30
0.0
 11
164.079147338867
 21
-51.3904571533203
 31
0.0
  0
LINE
  5
DC
330
1F
100
AcDbEntity
  8
1
  6
Continuous
 62
     4
100
AcDbLine
 10
164.954147338867
 20
-51.2654571533203
 30
0.0
 11
164.454147338867
 21
-51.3904571533203
 31
0.0
  0
LINE
  5
DD
330
1F
100
AcDbEntity
  8
1
  6
Continuous
 62
     4
100
AcDbLine
 10
165.329147338867
 20
-51.0154571533203
 30
0.0
 11
164.954147338867
 21
-51.2654571533203
 31
0.0
  0
LINE
  5
DE
330
1F
100
AcDbEntity
  8
1
  6
Continuous
 62
     4
100
AcDbLine
 10
165.454147338867
 20
-50.7654571533203
 30
0.0
 11
165.329147338867
 21
-51.0154571533203
 31
0.0
  0
LINE
  5
DF
330
1F
100
AcDbEntity
  8
1
  6
Continuous
 62
     4
100
AcDbLine
 10
165.579147338867
 20
-50.3904571533203
 30
0.0
 11
165.454147338867
 21
-50.7654571533203
 31
0.0
  0
LINE
  5
E0
330
1F
100
AcDbEntity
  8
1
  6
Continuous
 62
     4
100
AcDbLine
 10
165.579147338867
 20
-49.8904571533203
 30
0.0
 11
165.579147338867
 21
-50.3904571533203
 31
0.0
  0
LINE
  5
E1
330
1F
100
AcDbEntity
  8
1
  6
Continuous
 62
     4
100
AcDbLine
 10
165.454147338867
 20
-49.5154571533203
 30
0.0
 11
165.579147338867
 21
-49.8904571533203
 31
0.0
  0
LINE
  5
E2
330
1F
100
AcDbEntity
  8
1
  6
Continuous
 62
     4
100
AcDbLine
 10
165.329147338867
 20
-49.2654571533203
 30
0.0
 11
165.454147338867
 21
-49.5154571533203
 31
0.0
  0
LINE
  5
E3
330
1F
100
AcDbEntity
  8
1
  6
Continuous
 62
     4
100
AcDbLine
 10
164.954147338867
 20
-49.0154571533203
 30
0.0
 11
165.329147338867
 21
-49.2654571533203
 31
0.0
  0
LINE
  5
E4
330
1F
100
AcDbEntity
  8
1
  6
Continuous
 62
     4
100
AcDbLine
 10
164.454147338867
 20
-48.8904571533203
 30
0.0
 11
164.954147338867
 21
-49.0154571533203
 31
0.0
  0
LINE
  5
E5
330
1F
100
AcDbEntity
  8
1
  6
Continuous
 62
     4
100
AcDbLine
 10
162.079147338867
 20
-48.8904571533203
 30
0.0
 11
164.454147338867
 21
-48.8904571533203
 31
0.0
  0
LINE
  5
E6
330
1F
100
AcDbEntity
  8
1
  6
Continuous
 62
     4
100
AcDbLine
 10
162.079147338867
 20
-51.3904571533203
 30
0.0
 11
162.079147338867
 21
-48.8904571533203
 31
0.0
  0
LINE
  5
E7
330
1F
100
AcDbEntity
  8
1
  6
Continuous
 62
     4
100
AcDbLine
 10
164.079147338867
 20
-51.3904571533203
 30
0.0
 11
162.079147338867
 21
-51.3904571533203
 31
0.0
  0
LINE
  5
E8
330
1F
100
AcDbEntity
  8
1
  6
Continuous
 62
     4
100
AcDbLine
 10
62.4194984436035
 20
-165.16291809082
 30
0.0
 11
63.4194984436035
 21
-165.78791809082
 31
0.0
  0
LINE
  5
E9
330
1F
100
AcDbEntity
  8
1
  6
Continuous
 62
     4
100
AcDbLine
 10
63.7944984436035
 20
-164.85041809082
 30
0.0
 11
62.9819984436035
 21
-164.22541809082
 31
0.0
  0
LINE
  5
EA
330
1F
100
AcDbEntity
  8
1
  6
Continuous
 62
     4
100
AcDbLine
 10
64.4819984436035
 20
-164.10041809082
 30
0.0
 11
64.9194984436035
 21
-164.53791809082
 31
0.0
  0
LINE
  5
EB
330
1F
100
AcDbEntity
  8
1
  6
Continuous
 62
     4
100
AcDbLine
 10
65.2319984436035
 20
-164.22541809082
 30
0.0
 11
64.7944984436035
 21
-163.78791809082
 31
0.0
  0
LINE
  5
EC
330
1F
100
AcDbEntity
  8
1
  6
Continuous
 62
     4
100
AcDbLine
 10
64.9194984436035
 20
-166.10041809082
 30
0.0
 11
65.6069984436035
 21
-165.16291809082
 31
0.0
  0
LINE
  5
ED
330
1F
100
AcDbEntity
  8
1
  6
Continuous
 62
     4
100
AcDbLine
 10
63.7944984436035
 20
-167.03791809082
 30
0.0
 11
64.9194984436035
 21
-166.10041809082
 31
0.0
  0
LINE
  5
EE
330
1F
100
AcDbEntity
  8
1
  6
Continuous
 62
     4
100
AcDbLine
 10
62.7319984436035
 20
-167.66291809082
 30
0.0
 11
63.7944984436035
 21
-167.03791809082
 31
0.0
  0
LINE
  5
EF
330
1F
100
AcDbEntity
  8
1
  6
Continuous
 62
     4
100
AcDbLine
 10
60.0444984436035
 20
-166.28791809082
 30
0.0
 11
60.4819984436035
 21
-166.91291809082
 31
0.0
  0
LINE
  5
F0
330
1F
100
AcDbEntity
  8
1
  6
Continuous
 62
     4
100
AcDbLine
 10
59.4819984436035
 20
-165.78791809082
 30
0.0
 11
60.0444984436035
 21
-166.28791809082
 31
0.0
  0
LINE
  5
F1
330
1F
100
AcDbEntity
  8
1
  6
Continuous
 62
     4
100
AcDbLine
 10
59.1069984436035
 20
-163.78791809082
 30
0.0
 11
59.3569984436035
 21
-164.10041809082
 31
0.0
  0
LINE
  5
F2
330
1F
100
AcDbEntity
  8
1
  6
Continuous
 62
     4
100
AcDbLine
 10
58.5444984436035
 20
-163.47541809082
 30
0.0
 11
59.1069984436035
 21
-163.78791809082
 31
0.0
  0
LINE
  5
F3
330
1F
100
AcDbEntity
  8
1
  6
Continuous
 62
     4
100
AcDbLine
 10
59.7944984436035
 20
-164.72541809082
 30
0.0
 11
57.8569984436035
 21
-164.72541809082
 31
0.0
  0
LINE
  5
F4
330
1F
100
AcDbEntity
  8
1
  6
Continuous
 62
     4
100
AcDbLine
 10
58.7944984436035
 20
-165.78791809082
 30
0.0
 11
59.7944984436035
 21
-164.72541809082
 31
0.0
  0
LINE
  5
F5
330
1F
100
AcDbEntity
  8
1
  6
Continuous
 62
     4
100
AcDbLine
 10
57.4194984436035
 20
-166.72541809082
 30
0.0
 11
58.7944984436035
 21
-165.78791809082
 31
0.0
  0
LINE
  5
F6
330
1F
100
AcDbEntity
  8
1
  6
Continuous
 62
     4
100
AcDbLine
 10
58.9819984436035
 20
-167.66291809082
 30
0.0
 11
58.9819984436035
 21
-165.66291809082
 31
0.0
  0
LINE
  5
F7
330
1F
100
AcDbEntity
  8
1
  6
Continuous
 62
     4
100
AcDbLine
 10
54.4819984436035
 20
-166.16291809082
 30
0.0
 11
54.4819984436035
 21
-168.16291809082
 31
0.0
  0
LINE
  5
F8
330
1F
100
AcDbEntity
  8
1
  6
Continuous
 62
     4
100
AcDbLine
 10
52.2319984436035
 20
-167.16291809082
 30
0.0
 11
55.2319984436035
 21
-167.16291809082
 31
0.0
  0
LINE
  5
F9
330
1F
100
AcDbEntity
  8
1
  6
Continuous
 62
     4
100
AcDbLine
 10
54.4819984436035
 20
-163.16291809082
 30
0.0
 11
52.2319984436035
 21
-167.16291809082
 31
0.0
  0
LINE
  5
FA
330
1F
100
AcDbEntity
  8
1
  6
Continuous
 62
     4
100
AcDbLine
 10
48.7319984436035
 20
-168.16291809082
 30
0.0
 11
50.7319984436035
 21
-163.16291809082
 31
0.0
  0
LINE
  5
FB
330
1F
100
AcDbEntity
  8
1
  6
Continuous
 62
     4
100
AcDbLine
 10
46.1069984436035
 20
-168.16291809082
 30
0.0
 11
44.2319984436035
 21
-168.16291809082
 31
0.0
  0
LINE
  5
FC
330
1F
100
AcDbEntity
  8
1
  6
Continuous
 62
     4
100
AcDbLine
 10
46.4819984436035
 20
-168.03791809082
 30
0.0
 11
46.1069984436035
 21
-168.16291809082
 31
0.0
  0
LINE
  5
FD
330
1F
100
AcDbEntity
  8
1
  6
Continuous
 62
     4
100
AcDbLine
 10
46.8569984436035
 20
-167.78791809082
 30
0.0
 11
46.4819984436035
 21
-168.03791809082
 31
0.0
  0
LINE
  5
FE
330
1F
100
AcDbEntity
  8
1
  6
Continuous
 62
     4
100
AcDbLine
 10
47.1069984436035
 20
-167.41291809082
 30
0.0
 11
46.8569984436035
 21
-167.78791809082
 31
0.0
  0
LINE
  5
FF
330
1F
100
AcDbEntity
  8
1
  6
Continuous
 62
     4
100
AcDbLine
 10
47.2319984436035
 20
-166.91291809082
 30
0.0
 11
47.1069984436035
 21
-167.41291809082
 31
0.0
  0
LINE
  5
100
330
1F
100
AcDbEntity
  8
1
  6
Continuous
 62
     4
100
AcDbLine
 10
47.2319984436035
 20
-166.28791809082
 30
0.0
 11
47.2319984436035
 21
-166.91291809082
 31
0.0
  0
LINE
  5
101
330
1F
100
AcDbEntity
  8
1
  6
Continuous
 62
     4
100
AcDbLine
 10
47.1069984436035
 20
-165.78791809082
 30
0.0
 11
47.2319984436035
 21
-166.28791809082
 31
0.0
  0
LINE
  5
102
330
1F
100
AcDbEntity
  8
1
  6
Continuous
 62
     4
100
AcDbLine
 10
46.9819984436035
 20
-165.53791809082
 30
0.0
 11
47.1069984436035
 21
-165.78791809082
 31
0.0
  0
LINE
  5
103
330
1F
100
AcDbEntity
  8
1
  6
Continuous
 62
     4
100
AcDbLine
 10
46.7319984436035
 20
-165.28791809082
 30
0.0
 11
46.9819984436035
 21
-165.53791809082
 31
0.0
  0
LINE
  5
104
330
1F
100
AcDbEntity
  8
1
  6
Continuous
 62
     4
100
AcDbLine
 10
46.2319984436035
 20
-165.16291809082
 30
0.0
 11
46.7319984436035
 21
-165.28791809082
 31
0.0
  0
LINE
  5
105
330
1F
100
AcDbEntity
  8
1
  6
Continuous
 62
     4
100
AcDbLine
 10
46.6069984436035
 20
-165.03791809082
 30
0.0
 11
46.2319984436035
 21
-165.16291809082
 31
0.0
  0
LINE
  5
106
330
1F
100
AcDbEntity
  8
1
  6
Continuous
 62
     4
100
AcDbLine
 10
46.8569984436035
 20
-164.91291809082
 30
0.0
 11
46.6069984436035
 21
-165.03791809082
 31
0.0
  0
LINE
  5
107
330
1F
100
AcDbEntity
  8
1
  6
Continuous
 62
     4
100
AcDbLine
 10
47.1069984436035
 20
-164.66291809082
 30
0.0
 11
46.8569984436035
 21
-164.91291809082
 31
0.0
  0
LINE
  5
108
330
1F
100
AcDbEntity
  8
1
  6
Continuous
 62
     4
100
AcDbLine
 10
47.2319984436035
 20
-164.28791809082
 30
0.0
 11
47.1069984436035
 21
-164.66291809082
 31
0.0
  0
LINE
  5
109
330
1F
100
AcDbEntity
  8
1
  6
Continuous
 62
     4
100
AcDbLine
 10
47.2319984436035
 20
-163.91291809082
 30
0.0
 11
47.2319984436035
 21
-164.28791809082
 31
0.0
  0
LINE
  5
10A
330
1F
100
AcDbEntity
  8
1
  6
Continuous
 62
     4
100
AcDbLine
 10
47.1069984436035
 20
-163.53791809082
 30
0.0
 11
47.2319984436035
 21
-163.91291809082
 31
0.0
  0
LINE
  5
10B
330
1F
100
AcDbEntity
  8
1
  6
Continuous
 62
     4
100
AcDbLine
 10
46.7319984436035
 20
-163.28791809082
 30
0.0
 11
47.1069984436035
 21
-163.53791809082
 31
0.0
  0
LINE
  5
10C
330
1F
100
AcDbEntity
  8
1
  6
Continuous
 62
     4
100
AcDbLine
 10
46.1069984436035
 20
-163.16291809082
 30
0.0
 11
46.7319984436035
 21
-163.28791809082
 31
0.0
  0
LINE
  5
10D
330
1F
100
AcDbEntity
  8
1
  6
Continuous
 62
     4
100
AcDbLine
 10
44.2319984436035
 20
-163.16291809082
 30
0.0
 11
46.1069984436035
 21
-163.16291809082
 31
0.0
  0
LINE
  5
10E
330
1F
100
AcDbEntity
  8
1
  6
Continuous
 62
     4
100
AcDbLine
 10
44.9819984436035
 20
-165.16291809082
 30
0.0
 11
46.2319984436035
 21
-165.16291809082
 31
0.0
  0
LINE
  5
10F
330
1F
100
AcDbEntity
  8
1
  6
Continuous
 62
     4
100
AcDbLine
 10
39.2319984436035
 20
-168.16291809082
 30
0.0
 11
39.2319984436035
 21
-165.66291809082
 31
0.0
  0
LINE
  5
110
330
1F
100
AcDbEntity
  8
1
  6
Continuous
 62
     4
100
AcDbLine
 10
41.2319984436035
 20
-165.66291809082
 30
0.0
 11
42.7319984436035
 21
-168.16291809082
 31
0.0
  0
LINE
  5
111
330
1F
100
AcDbEntity
  8
1
  6
Continuous
 62
     4
100
AcDbLine
 10
41.6069984436035
 20
-165.66291809082
 30
0.0
 11
41.2319984436035
 21
-165.66291809082
 31
0.0
  0
LINE
  5
112
330
1F
100
AcDbEntity
  8
1
  6
Continuous
 62
     4
100
AcDbLine
 10
42.1069984436035
 20
-165.53791809082
 30
0.0
 11
41.6069984436035
 21
-165.66291809082
 31
0.0
  0
LINE
  5
113
330
1F
100
AcDbEntity
  8
1
  6
Continuous
 62
     4
100
AcDbLine
 10
42.4819984436035
 20
-165.28791809082
 30
0.0
 11
42.1069984436035
 21
-165.53791809082
 31
0.0
  0
LINE
  5
114
330
1F
100
AcDbEntity
  8
1
  6
Continuous
 62
     4
100
AcDbLine
 10
42.6069984436035
 20
-165.03791809082
 30
0.0
 11
42.4819984436035
 21
-165.28791809082
 31
0.0
  0
LINE
  5
115
330
1F
100
AcDbEntity
  8
1
  6
Continuous
 62
     4
100
AcDbLine
 10
42.7319984436035
 20
-164.66291809082
 30
0.0
 11
42.6069984436035
 21
-165.03791809082
 31
0.0
  0
LINE
  5
116
330
1F
100
AcDbEntity
  8
1
  6
Continuous
 62
     4
100
AcDbLine
 10
42.7319984436035
 20
-164.16291809082
 30
0.0
 11
42.7319984436035
 21
-164.66291809082
 31
0.0
  0
LINE
  5
117
330
1F
100
AcDbEntity
  8
1
  6
Continuous
 62
     4
100
AcDbLine
 10
42.6069984436035
 20
-163.78791809082
 30
0.0
 11
42.7319984436035
 21
-164.16291809082
 31
0.0
  0
LINE
  5
118
330
1F
100
AcDbEntity
  8
1
  6
Continuous
 62
     4
100
AcDbLine
 10
42.4819984436035
 20
-163.53791809082
 30
0.0
 11
42.6069984436035
 21
-163.78791809082
 31
0.0
  0
LINE
  5
119
330
1F
100
AcDbEntity
  8
1
  6
Continuous
 62
     4
100
AcDbLine
 10
42.1069984436035
 20
-163.28791809082
 30
0.0
 11
42.4819984436035
 21
-163.53791809082
 31
0.0
  0
LINE
  5
11A
330
1F
100
AcDbEntity
  8
1
  6
Continuous
 62
     4
100
AcDbLine
 10
41.6069984436035
 20
-163.16291809082
 30
0.0
 11
42.1069984436035
 21
-163.28791809082
 31
0.0
  0
LINE
  5
11B
330
1F
100
AcDbEntity
  8
1
  6
Continuous
 62
     4
100
AcDbLine
 10
39.2319984436035
 20
-163.16291809082
 30
0.0
 11
41.6069984436035
 21
-163.16291809082
 31
0.0
  0
LINE
  5
11C
330
1F
100
AcDbEntity
  8
1
  6
Continuous
 62
     4
100
AcDbLine
 10
39.2319984436035
 20
-165.66291809082
 30
0.0
 11
39.2319984436035
 21
-163.16291809082
 31
0.0
  0
LINE
  5
11D
330
1F
100
AcDbEntity
  8
1
  6
Continuous
 62
     4
100
AcDbLine
 10
41.2319984436035
 20
-165.66291809082
 30
0.0
 11
39.2319984436035
 21
-165.66291809082
 31
0.0
  0
LINE
  5
11E
330
1F
100
AcDbEntity
  8
1
  6
Continuous
 62
     4
100
AcDbLine
 10
-164.874969482422
 20
-46.4375
 30
0.0
 11
-163.874969482422
 21
-47.0625
 31
0.0
  0
LINE
  5
11F
330
1F
100
AcDbEntity
  8
1
  6
Continuous
 62
     4
100
AcDbLine
 10
-163.499969482422
 20
-46.125
 30
0.0
 11
-164.312469482422
 21
-45.5
 31
0.0
  0
LINE
  5
120
330
1F
100
AcDbEntity
  8
1
  6
Continuous
 62
     4
100
AcDbLine
 10
-162.812469482422
 20
-45.375
 30
0.0
 11
-162.374969482422
 21
-45.8125
 31
0.0
  0
LINE
  5
121
330
1F
100
AcDbEntity
  8
1
  6
Continuous
 62
     4
100
AcDbLine
 10
-162.062469482422
 20
-45.5
 30
0.0
 11
-162.499969482422
 21
-45.0625
 31
0.0
  0
LINE
  5
122
330
1F
100
AcDbEntity
  8
1
  6
Continuous
 62
     4
100
AcDbLine
 10
-162.374969482422
 20
-47.375
 30
0.0
 11
-161.687469482422
 21
-46.4375
 31
0.0
  0
LINE
  5
123
330
1F
100
AcDbEntity
  8
1
  6
Continuous
 62
     4
100
AcDbLine
 10
-163.499969482422
 20
-48.3125
 30
0.0
 11
-162.374969482422
 21
-47.375
 31
0.0
  0
LINE
  5
124
330
1F
100
AcDbEntity
  8
1
  6
Continuous
 62
     4
100
AcDbLine
 10
-164.562469482422
 20
-48.9375
 30
0.0
 11
-163.499969482422
 21
-48.3125
 31
0.0
  0
LINE
  5
125
330
1F
100
AcDbEntity
  8
1
  6
Continuous
 62
     4
100
AcDbLine
 10
-167.249969482422
 20
-47.5625
 30
0.0
 11
-166.812469482422
 21
-48.1875
 31
0.0
  0
LINE
  5
126
330
1F
100
AcDbEntity
  8
1
  6
Continuous
 62
     4
100
AcDbLine
 10
-167.812469482422
 20
-47.0625
 30
0.0
 11
-167.249969482422
 21
-47.5625
 31
0.0
  0
LINE
  5
127
330
1F
100
AcDbEntity
  8
1
  6
Continuous
 62
     4
100
AcDbLine
 10
-168.187469482422
 20
-45.0625
 30
0.0
 11
-167.937469482422
 21
-45.375
 31
0.0
  0
LINE
  5
128
330
1F
100
AcDbEntity
  8
1
  6
Continuous
 62
     4
100
AcDbLine
 10
-168.749969482422
 20
-44.75
 30
0.0
 11
-168.187469482422
 21
-45.0625
 31
0.0
  0
LINE
  5
129
330
1F
100
AcDbEntity
  8
1
  6
Continuous
 62
     4
100
AcDbLine
 10
-167.499969482422
 20
-46.0
 30
0.0
 11
-169.437469482422
 21
-46.0
 31
0.0
  0
LINE
  5
12A
330
1F
100
AcDbEntity
  8
1
  6
Continuous
 62
     4
100
AcDbLine
 10
-168.499969482422
 20
-47.0625
 30
0.0
 11
-167.499969482422
 21
-46.0
 31
0.0
  0
LINE
  5
12B
330
1F
100
AcDbEntity
  8
1
  6
Continuous
 62
     4
100
AcDbLine
 10
-169.874969482422
 20
-48.0
 30
0.0
 11
-168.499969482422
 21
-47.0625
 31
0.0
  0
LINE
  5
12C
330
1F
100
AcDbEntity
  8
1
  6
Continuous
 62
     4
100
AcDbLine
 10
-168.312469482422
 20
-48.9375
 30
0.0
 11
-168.312469482422
 21
-46.9375
 31
0.0
  0
LINE
  5
12D
330
1F
100
AcDbEntity
  8
1
  6
Continuous
 62
     4
100
AcDbLine
 10
-175.062469482422
 20
-49.4375
 30
0.0
 11
-172.062469482422
 21
-49.4375
 31
0.0
  0
LINE
  5
12E
330
1F
100
AcDbEntity
  8
1
  6
Continuous
 62
     4
100
AcDbLine
 10
-172.312469482422
 20
-46.1875
 30
0.0
 11
-175.062469482422
 21
-49.4375
 31
0.0
  0
LINE
  5
12F
330
1F
100
AcDbEntity
  8
1
  6
Continuous
 62
     4
100
AcDbLine
 10
-172.062469482422
 20
-45.6875
 30
0.0
 11
-172.312469482422
 21
-46.1875
 31
0.0
  0
LINE
  5
130
330
1F
100
AcDbEntity
  8
1
  6
Continuous
 62
     4
100
AcDbLine
 10
-172.062469482422
 20
-45.1875
 30
0.0
 11
-172.062469482422
 21
-45.6875
 31
0.0
  0
LINE
  5
131
330
1F
100
AcDbEntity
  8
1
  6
Continuous
 62
     4
100
AcDbLine
 10
-172.312469482422
 20
-44.8125
 30
0.0
 11
-172.062469482422
 21
-45.1875
 31
0.0
  0
LINE
  5
132
330
1F
100
AcDbEntity
  8
1
  6
Continuous
 62
     4
100
AcDbLine
 10
-172.687469482422
 20
-44.5625
 30
0.0
 11
-172.312469482422
 21
-44.8125
 31
0.0
  0
LINE
  5
133
330
1F
100
AcDbEntity
  8
1
  6
Continuous
 62
     4
100
AcDbLine
 10
-173.187469482422
 20
-44.4375
 30
0.0
 11
-172.687469482422
 21
-44.5625
 31
0.0
  0
LINE
  5
134
330
1F
100
AcDbEntity
  8
1
  6
Continuous
 62
     4
100
AcDbLine
 10
-173.937469482422
 20
-44.4375
 30
0.0
 11
-173.187469482422
 21
-44.4375
 31
0.0
  0
LINE
  5
135
330
1F
100
AcDbEntity
  8
1
  6
Continuous
 62
     4
100
AcDbLine
 10
-174.437469482422
 20
-44.5625
 30
0.0
 11
-173.937469482422
 21
-44.4375
 31
0.0
  0
LINE
  5
136
330
1F
100
AcDbEntity
  8
1
  6
Continuous
 62
     4
100
AcDbLine
 10
-174.812469482422
 20
-44.8125
 30
0.0
 11
-174.437469482422
 21
-44.5625
 31
0.0
  0
LINE
  5
137
330
1F
100
AcDbEntity
  8
1
  6
Continuous
 62
     4
100
AcDbLine
 10
-175.062469482422
 20
-45.1875
 30
0.0
 11
-174.812469482422
 21
-44.8125
 31
0.0
  0
LINE
  5
138
330
1F
100
AcDbEntity
  8
1
  6
Continuous
 62
     4
100
AcDbLine
 10
-180.062469482422
 20
-49.4375
 30
0.0
 11
-180.062469482422
 21
-46.9375
 31
0.0
  0
LINE
  5
139
330
1F
100
AcDbEntity
  8
1
  6
Continuous
 62
     4
100
AcDbLine
 10
-178.062469482422
 20
-46.9375
 30
0.0
 11
-176.562469482422
 21
-49.4375
 31
0.0
  0
LINE
  5
13A
330
1F
100
AcDbEntity
  8
1
  6
Continuous
 62
     4
100
AcDbLine
 10
-177.687469482422
 20
-46.9375
 30
0.0
 11
-178.062469482422
 21
-46.9375
 31
0.0
  0
LINE
  5
13B
330
1F
100
AcDbEntity
  8
1
  6
Continuous
 62
     4
100
AcDbLine
 10
-177.187469482422
 20
-46.8125
 30
0.0
 11
-177.687469482422
 21
-46.9375
 31
0.0
  0
LINE
  5
13C
330
1F
100
AcDbEntity
  8
1
  6
Continuous
 62
     4
100
AcDbLine
 10
-176.812469482422
 20
-46.5625
 30
0.0
 11
-177.187469482422
 21
-46.8125
 31
0.0
  0
LINE
  5
13D
330
1F
100
AcDbEntity
  8
1
  6
Continuous
 62
     4
100
AcDbLine
 10
-176.687469482422
 20
-46.3125
 30
0.0
 11
-176.812469482422
 21
-46.5625
 31
0.0
  0
LINE
  5
13E
330
1F
100
AcDbEntity
  8
1
  6
Continuous
 62
     4
100
AcDbLine
 10
-176.562469482422
 20
-45.9375
 30
0.0
 11
-176.687469482422
 21
-46.3125
 31
0.0
  0
LINE
  5
13F
330
1F
100
AcDbEntity
  8
1
  6
Continuous
 62
     4
100
AcDbLine
 10
-176.562469482422
 20
-45.4375
 30
0.0
 11
-176.562469482422
 21
-45.9375
 31
0.0
  0
LINE
  5
140
330
1F
100
AcDbEntity
  8
1
  6
Continuous
 62
     4
100
AcDbLine
 10
-176.687469482422
 20
-45.0625
 30
0.0
 11
-176.562469482422
 21
-45.4375
 31
0.0
  0
LINE
  5
141
330
1F
100
AcDbEntity
  8
1
  6
Continuous
 62
     4
100
AcDbLine
 10
-176.812469482422
 20
-44.8125
 30
0.0
 11
-176.687469482422
 21
-45.0625
 31
0.0
  0
LINE
  5
142
330
1F
100
AcDbEntity
  8
1
  6
Continuous
 62
     4
100
AcDbLine
 10
-177.187469482422
 20
-44.5625
 30
0.0
 11
-176.812469482422
 21
-44.8125
 31
0.0
  0
LINE
  5
143
330
1F
100
AcDbEntity
  8
1
  6
Continuous
 62
     4
100
AcDbLine
 10
-177.687469482422
 20
-44.4375
 30
0.0
 11
-177.187469482422
 21
-44.5625
 31
0.0
  0
LINE
  5
144
330
1F
100
AcDbEntity
  8
1
  6
Continuous
 62
     4
100
AcDbLine
 10
-180.062469482422
 20
-44.4375
 30
0.0
 11
-177.687469482422
 21
-44.4375
 31
0.0
  0
LINE
  5
145
330
1F
100
AcDbEntity
  8
1
  6
Continuous
 62
     4
100
AcDbLine
 10
-180.062469482422
 20
-46.9375
 30
0.0
 11
-180.062469482422
 21
-44.4375
 31
0.0
  0
LINE
  5
146
330
1F
100
AcDbEntity
  8
1
  6
Continuous
 62
     4
100
AcDbLine
 10
-178.062469482422
 20
-46.9375
 30
0.0
 11
-180.062469482422
 21
-46.9375
 31
0.0
  0
LINE
  5
169
330
1F
100
AcDbEntity
  8
1
  6
Continuous
 62
     4
100
AcDbLine
 10
-143.120025634766
 20
-29.806999206543
 30
0.0
 11
-145.520298972871
 21
-31.7780037295982
 31
0.0
  0
LINE
  5
16A
330
1F
100
AcDbEntity
  8
1
  6
Continuous
 62
     4
100
AcDbLine
 10
-143.120025634766
 20
-29.806999206543
 30
0.0
 11
-144.213221060063
 21
-32.7140758635352
 31
0.0
  0
LINE
  5
16B
330
1F
100
AcDbEntity
  8
1
  6
Continuous
 62
     4
100
AcDbLine
 10
143.120040893555
 20
-29.806999206543
 30
0.0
 11
144.071620552317
 21
-32.7634611258903
 31
0.0
  0
LINE
  5
16C
330
1F
100
AcDbEntity
  8
1
  6
Continuous
 62
     4
100
AcDbLine
 10
143.120040893555
 20
-29.806999206543
 30
0.0
 11
145.422364011441
 21
-31.8915805046381
 31
0.0
  0
LINE
  5
16D
330
1F
100
AcDbEntity
  8
1
  6
Continuous
 62
     4
100
AcDbLine
 10
13.0999937057495
 20
-146.470001220703
 30
0.0
 11
14.6616978908456
 21
-149.154633591396
 31
0.0
  0
LINE
  5
16E
330
1F
100
AcDbEntity
  8
1
  6
Continuous
 62
     4
100
AcDbLine
 10
13.0999937057495
 20
-146.470001220703
 30
0.0
 11
15.7947853885858
 21
-148.014108960997
 31
0.0
  0
LINE
  5
16F
330
1F
100
AcDbEntity
  8
2
  6
DOT_CENTER
 62
     1
100
AcDbLine
 10
220.0
 20
0.0
 30
0.0
 11
315.0
 21
0.0
 31
0.0
  0
LINE
  5
170
330
1F
100
AcDbEntity
  8
2
  6
DOT_CENTER
 62
     1
100
AcDbLine
 10
270.0
 20
205.0
 30
0.0
 11
270.0
 21
-167.42597448872
 31
0.0
  0
LINE
  5
171
330
1F
100
AcDbEntity
  8
100
  6
Continuous
 62
     3
100
AcDbLine
 10
236.0
 20
94.0
 30
0.0
 11
304.0
 21
94.0
 31
0.0
  0
LINE
  5
172
330
1F
100
AcDbEntity
  8
100
  6
Continuous
 62
     3
100
AcDbLine
 10
236.0
 20
69.5
 30
0.0
 11
304.0
 21
69.5
 31
0.0
  0
LINE
  5
173
330
1F
100
AcDbEntity
  8
100
  6
Continuous
 62
     3
100
AcDbLine
 10
304.0
 20
100.0
 30
0.0
 11
304.0
 21
69.5
 31
0.0
  0
LINE
  5
174
330
1F
100
AcDbEntity
  8
100
  6
Continuous
 62
     3
100
AcDbLine
 10
244.5
 20
69.5
 30
0.0
 11
244.5
 21
40.0
 31
0.0
  0
LINE
  5
175
330
1F
100
AcDbEntity
  8
100
  6
Continuous
 62
     3
100
AcDbLine
 10
236.0
 20
100.0
 30
0.0
 11
236.0
 21
69.5
 31
0.0
  0
LINE
  5
176
330
1F
100
AcDbEntity
  8
100
  6
Continuous
 62
     3
100
AcDbLine
 10
295.5
 20
69.5
 30
0.0
 11
295.5
 21
40.0
 31
0.0
  0
LINE
  5
177
330
1F
100
AcDbEntity
  8
100
  6
Continuous
 62
     3
100
AcDbLine
 10
241.5
 20
40.0
 30
0.0
 11
259.430379375061
 21
40.0
 31
0.0
  0
LINE
  5
178
330
1F
100
AcDbEntity
  8
100
  6
Continuous
 62
     3
100
AcDbLine
 10
280.569620624939
 20
40.0
 30
0.0
 11
298.5
 21
40.0
 31
0.0
  0
LINE
  5
179
330
1F
100
AcDbEntity
  8
100
  6
Continuous
 62
     3
100
AcDbLine
 10
295.5
 20
-61.0
 30
0.0
 11
295.5
 21
-40.0
 31
0.0
  0
LINE
  5
17A
330
1F
100
AcDbEntity
  8
100
  6
Continuous
 62
     3
100
AcDbLine
 10
244.5
 20
-61.0
 30
0.0
 11
244.5
 21
-40.0
 31
0.0
  0
LINE
  5
17B
330
1F
100
AcDbEntity
  8
100
  6
Continuous
 62
     3
100
AcDbLine
 10
302.5
 20
-61.0
 30
0.0
 11
237.5
 21
-61.0
 31
0.0
  0
LINE
  5
17C
330
1F
100
AcDbEntity
  8
100
  6
Continuous
 62
     3
100
AcDbLine
 10
241.5
 20
-40.0
 30
0.0
 11
259.430379375061
 21
-40.0
 31
0.0
  0
LINE
  5
17D
330
1F
100
AcDbEntity
  8
100
  6
Continuous
 62
     3
100
AcDbLine
 10
280.569620624939
 20
-40.0
 30
0.0
 11
298.5
 21
-40.0
 31
0.0
  0
LINE
  5
17E
330
1F
100
AcDbEntity
  8
100
  6
Continuous
 62
     3
100
AcDbLine
 10
286.6245
 20
-83.0
 30
0.0
 11
286.6245
 21
-88.5
 31
0.0
  0
LINE
  5
17F
330
1F
100
AcDbEntity
  8
100
  6
Continuous
 62
     3
100
AcDbLine
 10
253.3755
 20
-83.0
 30
0.0
 11
253.3755
 21
-88.5
 31
0.0
  0
LINE
  5
180
330
1F
100
AcDbEntity
  8
100
  6
Continuous
 62
     3
100
AcDbLine
 10
302.5
 20
-83.0
 30
0.0
 11
302.5
 21
-61.0
 31
0.0
  0
LINE
  5
181
330
1F
100
AcDbEntity
  8
100
  6
Continuous
 62
     3
100
AcDbLine
 10
237.5
 20
-83.0
 30
0.0
 11
237.5
 21
-61.0
 31
0.0
  0
LINE
  5
182
330
1F
100
AcDbEntity
  8
100
  6
Continuous
 62
     3
100
AcDbLine
 10
237.5
 20
-83.0
 30
0.0
 11
302.5
 21
-83.0
 31
0.0
  0
LINE
  5
183
330
1F
100
AcDbEntity
  8
100
  6
Continuous
 62
     3
100
AcDbLine
 10
281.999999961236
 20
173.0
 30
0.0
 11
258.000000038764
 21
173.0
 31
0.0
  0
LINE
  5
184
330
1F
100
AcDbEntity
  8
100
  6
Continuous
 62
     3
100
AcDbLine
 10
282.743534518303
 20
176.717672785336
 30
0.0
 11
286.893220363148
 21
179.0
 31
0.0
  0
LINE
  5
185
330
1F
100
AcDbEntity
  8
100
  6
Continuous
 62
     3
100
AcDbLine
 10
282.743534518303
 20
176.717672785336
 30
0.0
 11
281.999999961236
 21
173.0
 31
0.0
  0
LINE
  5
186
330
1F
100
AcDbEntity
  8
100
  6
Continuous
 62
     3
100
AcDbLine
 10
257.256465481697
 20
176.717672785336
 30
0.0
 11
282.743534518303
 21
176.717672785336
 31
0.0
  0
LINE
  5
187
330
1F
100
AcDbEntity
  8
100
  6
Continuous
 62
     3
100
AcDbLine
 10
233.651947384102
 20
193.0
 30
0.0
 11
306.348052615898
 21
193.0
 31
0.0
  0
LINE
  5
188
330
1F
100
AcDbEntity
  8
100
  6
Continuous
 62
     3
100
AcDbLine
 10
233.651947384102
 20
179.0
 30
0.0
 11
306.348052615898
 21
179.0
 31
0.0
  0
LINE
  5
189
330
1F
100
AcDbEntity
  8
100
  6
Continuous
 62
     3
100
AcDbLine
 10
276.5
 20
138.0
 30
0.0
 11
276.5
 21
173.000000346709
 31
0.0
  0
LINE
  5
18A
330
1F
100
AcDbEntity
  8
100
  6
Continuous
 62
     3
100
AcDbLine
 10
257.256465481697
 20
176.717672785336
 30
0.0
 11
253.106779636852
 21
179.0
 31
0.0
  0
LINE
  5
18B
330
1F
100
AcDbEntity
  8
100
  6
Continuous
 62
     3
100
AcDbLine
 10
257.256465481697
 20
176.717672785336
 30
0.0
 11
258.000000038764
 21
173.0
 31
0.0
  0
LINE
  5
18C
330
1F
100
AcDbEntity
  8
100
  6
Continuous
 62
     3
100
AcDbLine
 10
263.5
 20
138.0
 30
0.0
 11
263.5
 21
173.000000346709
 31
0.0
  0
LINE
  5
18D
330
1F
100
AcDbEntity
  8
100
  6
Continuous
 62
     3
100
AcDbLine
 10
285.0
 20
118.0
 30
0.0
 11
285.0
 21
138.0
 31
0.0
  0
LINE
  5
18E
330
1F
100
AcDbEntity
  8
100
  6
Continuous
 62
     3
100
AcDbLine
 10
290.5
 20
115.4629126954
 30
0.0
 11
285.0
 21
118.0
 31
0.0
  0
LINE
  5
18F
330
1F
100
AcDbEntity
  8
100
  6
Continuous
 62
     3
100
AcDbLine
 10
236.0
 20
100.0
 30
0.0
 11
304.0
 21
100.0
 31
0.0
  0
LINE
  5
190
330
1F
100
AcDbEntity
  8
100
  6
Continuous
 62
     3
100
AcDbLine
 10
285.0
 20
138.0
 30
0.0
 11
255.0
 21
138.0
 31
0.0
  0
LINE
  5
191
330
1F
100
AcDbEntity
  8
100
  6
Continuous
 62
     3
100
AcDbLine
 10
255.0
 20
138.0
 30
0.0
 11
255.0
 21
118.0
 31
0.0
  0
LINE
  5
192
330
1F
100
AcDbEntity
  8
100
  6
Continuous
 62
     3
100
AcDbLine
 10
255.0
 20
118.0
 30
0.0
 11
249.5
 21
115.4629126954
 31
0.0
  0
LINE
  5
193
330
1F
100
AcDbEntity
  8
100
  6
Continuous
 62
     3
100
AcDbLine
 10
249.5
 20
100.0
 30
0.0
 11
249.5
 21
115.4629126954
 31
0.0
  0
LINE
  5
194
330
1F
100
AcDbEntity
  8
100
  6
Continuous
 62
     3
100
AcDbLine
 10
290.5
 20
100.0
 30
0.0
 11
290.5
 21
115.4629126954
 31
0.0
  0
LINE
  5
195
330
1F
100
AcDbEntity
  8
100
  6
Continuous
 62
     3
100
AcDbLine
 10
298.5
 20
40.0
 30
0.0
 11
298.5
 21
32.5729936843548
 31
0.0
  0
LINE
  5
196
330
1F
100
AcDbEntity
  8
100
  6
Continuous
 62
     3
100
AcDbLine
 10
298.5
 20
-32.5729936843548
 30
0.0
 11
298.5
 21
-40.0
 31
0.0
  0
LINE
  5
197
330
1F
100
AcDbEntity
  8
100
  6
Continuous
 62
     3
100
AcDbLine
 10
241.5
 20
40.0
 30
0.0
 11
241.5
 21
32.5729936843548
 31
0.0
  0
LINE
  5
198
330
1F
100
AcDbEntity
  8
100
  6
Continuous
 62
     3
100
AcDbLine
 10
241.5
 20
-32.5729936843547
 30
0.0
 11
241.5
 21
-40.0
 31
0.0
  0
LINE
  5
199
330
1F
100
AcDbEntity
  8
100
  6
Continuous
 62
     3
100
AcDbLine
 10
42.408
 20
35.0
 30
0.0
 11
43.5
 21
36.092
 31
0.0
  0
LINE
  5
19A
330
1F
100
AcDbEntity
  8
100
  6
Continuous
 62
     3
100
AcDbLine
 10
40.4803666585749
 20
35.0
 30
0.0
 11
42.408
 21
35.0
 31
0.0
  0
LINE
  5
19B
330
1F
100
AcDbEntity
  8
100
  6
Continuous
 62
     3
100
AcDbLine
 10
25.5
 20
69.5
 30
0.0
 11
25.5
 21
40.0
 31
0.0
  0
LINE
  5
19C
330
1F
100
AcDbEntity
  8
100
  6
Continuous
 62
     3
100
AcDbLine
 10
34.0
 20
100.0
 30
0.0
 11
34.0
 21
69.5
 31
0.0
  0
LINE
  5
19D
330
1F
100
AcDbEntity
  8
100
  6
Continuous
 62
     3
100
AcDbLine
 10
-34.0
 20
69.5
 30
0.0
 11
34.0
 21
69.5
 31
0.0
  0
LINE
  5
19E
330
1F
100
AcDbEntity
  8
100
  6
Continuous
 62
     3
100
AcDbLine
 10
-25.5
 20
40.0
 30
0.0
 11
25.5
 21
40.0
 31
0.0
  0
LINE
  5
19F
330
1F
100
AcDbEntity
  8
100
  6
Continuous
 62
     3
100
AcDbLine
 10
42.408
 20
-35.0
 30
0.0
 11
43.5
 21
-36.092
 31
0.0
  0
LINE
  5
1A0
330
1F
100
AcDbEntity
  8
100
  6
Continuous
 62
     3
100
AcDbLine
 10
40.4803666585748
 20
-35.0
 30
0.0
 11
42.408
 21
-35.0
 31
0.0
  0
LINE
  5
1A1
330
1F
100
AcDbEntity
  8
100
  6
Continuous
 62
     3
100
AcDbLine
 10
25.5
 20
-61.0
 30
0.0
 11
25.5
 21
-40.0
 31
0.0
  0
LINE
  5
1A2
330
1F
100
AcDbEntity
  8
100
  6
Continuous
 62
     3
100
AcDbLine
 10
-25.5
 20
-40.0
 30
0.0
 11
25.5
 21
-40.0
 31
0.0
  0
LINE
  5
1A3
330
1F
100
AcDbEntity
  8
100
  6
Continuous
 62
     3
100
AcDbLine
 10
-42.408
 20
35.0
 30
0.0
 11
-43.5
 21
36.092
 31
0.0
  0
LINE
  5
1A4
330
1F
100
AcDbEntity
  8
100
  6
Continuous
 62
     3
100
AcDbLine
 10
-40.4803666585749
 20
35.0
 30
0.0
 11
-42.408
 21
35.0
 31
0.0
  0
LINE
  5
1A5
330
1F
100
AcDbEntity
  8
100
  6
Continuous
 62
     3
100
AcDbLine
 10
-42.408
 20
-35.0
 30
0.0
 11
-43.5
 21
-36.092
 31
0.0
  0
LINE
  5
1A6
330
1F
100
AcDbEntity
  8
100
  6
Continuous
 62
     3
100
AcDbLine
 10
-40.4803666585749
 20
-35.0
 30
0.0
 11
-42.408
 21
-35.0
 31
0.0
  0
LINE
  5
1A7
330
1F
100
AcDbEntity
  8
100
  6
Continuous
 62
     3
100
AcDbLine
 10
-25.5
 20
69.5
 30
0.0
 11
-25.5
 21
40.0
 31
0.0
  0
LINE
  5
1A8
330
1F
100
AcDbEntity
  8
100
  6
Continuous
 62
     3
100
AcDbLine
 10
-34.0
 20
100.0
 30
0.0
 11
-34.0
 21
69.5
 31
0.0
  0
LINE
  5
1A9
330
1F
100
AcDbEntity
  8
100
  6
Continuous
 62
     3
100
AcDbLine
 10
-25.5
 20
-61.0
 30
0.0
 11
-25.5
 21
-40.0
 31
0.0
  0
LINE
  5
1AA
330
1F
100
AcDbEntity
  8
100
  6
Continuous
 62
     3
100
AcDbLine
 10
35.0
 20
-61.0
 30
0.0
 11
-35.0
 21
-61.0
 31
0.0
  0
LINE
  5
1AB
330
1F
100
AcDbEntity
  8
100
  6
Continuous
 62
     3
100
AcDbLine
 10
35.0
 20
-61.0
 30
0.0
 11
35.0
 21
-83.0
 31
0.0
  0
LINE
  5
1AC
330
1F
100
AcDbEntity
  8
100
  6
Continuous
 62
     3
100
AcDbLine
 10
35.0
 20
-83.0
 30
0.0
 11
-35.0
 21
-83.0
 31
0.0
  0
LINE
  5
1AD
330
1F
100
AcDbEntity
  8
100
  6
Continuous
 62
     3
100
AcDbLine
 10
16.6245
 20
-83.0
 30
0.0
 11
16.6245
 21
-88.5
 31
0.0
  0
LINE
  5
1AE
330
1F
100
AcDbEntity
  8
100
  6
Continuous
 62
     3
100
AcDbLine
 10
-16.6245
 20
-83.0
 30
0.0
 11
-16.6245
 21
-88.5
 31
0.0
  0
LINE
  5
1AF
330
1F
100
AcDbEntity
  8
100
  6
Continuous
 62
     3
100
AcDbLine
 10
-35.0
 20
-61.0
 30
0.0
 11
-35.0
 21
-83.0
 31
0.0
  0
LINE
  5
1B0
330
1F
100
AcDbEntity
  8
100
  6
Continuous
 62
     3
100
AcDbLine
 10
18.6315983261837
 20
-4.0
 30
0.0
 11
-14.4816503278682
 21
-4.0
 31
0.0
  0
LINE
  5
1B1
330
1F
100
AcDbEntity
  8
100
  6
Continuous
 62
     3
100
AcDbLine
 10
-14.4816503278682
 20
-4.0
 30
0.0
 11
-17.3684016738163
 21
-9.0
 31
0.0
  0
LINE
  5
1B2
330
1F
100
AcDbEntity
  8
100
  6
Continuous
 62
     3
100
AcDbLine
 10
-17.3684016738163
 20
-9.0
 30
0.0
 11
-4.66669575164457
 21
-9.0
 31
0.0
  0
LINE
  5
1B3
330
1F
100
AcDbEntity
  8
100
  6
Continuous
 62
     3
100
AcDbLine
 10
-4.66669575164457
 20
-9.0
 30
0.0
 11
-1.77994440569639
 21
-4.0
 31
0.0
  0
LINE
  5
1B4
330
1F
100
AcDbEntity
  8
100
  6
Continuous
 62
     3
100
AcDbLine
 10
9.97134428833931
 20
-9.0
 30
0.0
 11
18.6315983261837
 21
-4.0
 31
0.0
  0
LINE
  5
1B5
330
1F
100
AcDbEntity
  8
2
  6
DOT_CENTER
 62
     1
100
AcDbLine
 10
-167.263893198335
 20
0.0
 30
0.0
 11
-85.0387221541092
 21
0.0
 31
0.0
  0
LINE
  5
1B6
330
1F
100
AcDbEntity
  8
2
  6
DOT_CENTER
 62
     1
100
AcDbLine
 10
84.7112891618023
 20
0.0
 30
0.0
 11
169.024208689573
 21
0.0
 31
0.0
  0
LINE
  5
1B7
330
1F
100
AcDbEntity
  8
2
  6
DOT_CENTER
 62
     1
100
AcDbLine
 10
0.0
 20
205.0
 30
0.0
 11
0.0
 21
18.0
 31
0.0
  0
LINE
  5
1B8
330
1F
100
AcDbEntity
  8
2
  6
DOT_CENTER
 62
     1
100
AcDbLine
 10
0.0
 20
-12.0
 30
0.0
 11
0.0
 21
-161.089852751916
 31
0.0
  0
LINE
  5
1B9
330
1F
100
AcDbEntity
  8
100
  6
Continuous
 62
     3
100
AcDbLine
 10
40.4803666585749
 20
-33.3550786878187
 30
0.0
 11
40.4803666585749
 21
34.0
 31
0.0
  0
LINE
  5
1BA
330
1F
100
AcDbEntity
  8
100
  6
Continuous
 62
     3
100
AcDbLine
 10
-40.4803666585749
 20
-33.3550786878187
 30
0.0
 11
-40.4803666585749
 21
34.0
 31
0.0
  0
LINE
  5
1BB
330
1F
100
AcDbEntity
  8
100
  6
Continuous
 62
     3
100
AcDbLine
 10
23.6713610367747
 20
114.0
 30
0.0
 11
15.0
 21
118.0
 31
0.0
  0
LINE
  5
1BC
330
1F
100
AcDbEntity
  8
100
  6
Continuous
 62
     3
100
AcDbLine
 10
15.0
 20
118.0
 30
0.0
 11
15.0
 21
138.0
 31
0.0
  0
LINE
  5
1BD
330
1F
100
AcDbEntity
  8
100
  6
Continuous
 62
     3
100
AcDbLine
 10
15.0
 20
138.0
 30
0.0
 11
-15.0
 21
138.0
 31
0.0
  0
LINE
  5
1BE
330
1F
100
AcDbEntity
  8
100
  6
Continuous
 62
     3
100
AcDbLine
 10
-15.0
 20
138.0
 30
0.0
 11
-15.0
 21
118.0
 31
0.0
  0
LINE
  5
1BF
330
1F
100
AcDbEntity
  8
100
  6
Continuous
 62
     3
100
AcDbLine
 10
-15.0
 20
118.0
 30
0.0
 11
-23.6713610367747
 21
114.0
 31
0.0
  0
LINE
  5
1C0
330
1F
100
AcDbEntity
  8
100
  6
Continuous
 62
     3
100
AcDbLine
 10
-34.0
 20
94.0
 30
0.0
 11
34.0
 21
94.0
 31
0.0
  0
LINE
  5
1C1
330
1F
100
AcDbEntity
  8
100
  6
Continuous
 62
     3
100
AcDbLine
 10
-6.5
 20
138.0
 30
0.0
 11
-6.5
 21
173.000000346709
 31
0.0
  0
LINE
  5
1C2
330
1F
100
AcDbEntity
  8
100
  6
Continuous
 62
     3
100
AcDbLine
 10
-12.7435344872925
 20
176.717672785335
 30
0.0
 11
12.7435344872925
 21
176.717672785336
 31
0.0
  0
LINE
  5
1C3
330
1F
100
AcDbEntity
  8
100
  6
Continuous
 62
     3
100
AcDbLine
 10
-11.9999999302253
 20
173.0
 30
0.0
 11
11.9999999302253
 21
173.0
 31
0.0
  0
LINE
  5
1C4
330
1F
100
AcDbEntity
  8
100
  6
Continuous
 62
     3
100
AcDbLine
 10
-12.7435344872925
 20
176.717672785335
 30
0.0
 11
-16.8932203321371
 21
179.0
 31
0.0
  0
LINE
  5
1C5
330
1F
100
AcDbEntity
  8
100
  6
Continuous
 62
     3
100
AcDbLine
 10
-11.9999999302253
 20
173.0
 30
0.0
 11
-12.7435344872925
 21
176.717672785335
 31
0.0
  0
LINE
  5
1C6
330
1F
100
AcDbEntity
  8
100
  6
Continuous
 62
     3
100
AcDbLine
 10
6.5
 20
138.0
 30
0.0
 11
6.5
 21
173.000000346709
 31
0.0
  0
LINE
  5
1C7
330
1F
100
AcDbEntity
  8
100
  6
Continuous
 62
     3
100
AcDbLine
 10
-40.9999999302255
 20
193.0
 30
0.0
 11
40.9999999302253
 21
193.0
 31
0.0
  0
LINE
  5
1C8
330
1F
100
AcDbEntity
  8
100
  6
Continuous
 62
     3
100
AcDbLine
 10
40.9999999302253
 20
179.0
 30
0.0
 11
-40.9999999302254
 21
179.0
 31
0.0
  0
LINE
  5
1C9
330
1F
100
AcDbEntity
  8
100
  6
Continuous
 62
     3
100
AcDbLine
 10
11.9999999302253
 20
173.0
 30
0.0
 11
12.7435344872925
 21
176.717672785336
 31
0.0
  0
LINE
  5
1CA
330
1F
100
AcDbEntity
  8
100
  6
Continuous
 62
     3
100
AcDbLine
 10
12.7435344872925
 20
176.717672785336
 30
0.0
 11
16.8932203321371
 21
179.0
 31
0.0
  0
LINE
  5
1CB
330
1F
100
AcDbEntity
  8
100
  6
Continuous
 62
     3
100
AcDbLine
 10
-34.0
 20
100.0
 30
0.0
 11
34.0
 21
100.0
 31
0.0
  0
LINE
  5
1CC
330
1F
100
AcDbEntity
  8
100
  6
Continuous
 62
     3
100
AcDbLine
 10
-23.6713610367747
 20
100.0
 30
0.0
 11
-23.6713610367747
 21
114.0
 31
0.0
  0
LINE
  5
1CD
330
1F
100
AcDbEntity
  8
100
  6
Continuous
 62
     3
100
AcDbLine
 10
23.6713610367747
 20
100.0
 30
0.0
 11
23.6713610367747
 21
114.0
 31
0.0
  0
LINE
  5
1CE
330
1F
100
AcDbEntity
  8
2
  6
DOT_CENTER
 62
     1
100
AcDbLine
 10
0.0
 20
220.0
 30
0.0
 11
0.0
 21
315.0
 31
0.0
  0
LINE
  5
1CF
330
1F
100
AcDbEntity
  8
2
  6
DOT_CENTER
 62
     1
100
AcDbLine
 10
170.409516181864
 20
270.0
 30
0.0
 11
-168.302143148461
 21
270.0
 31
0.0
  0
LINE
  5
1D0
330
1F
100
AcDbEntity
  8
100
  6
Continuous
 62
     3
100
AcDbLine
 10
-11.8002447294016
 20
269.909267979708
 30
0.0
 11
-11.8705853713552
 21
269.870914710863
 31
0.0
  0
LINE
  5
1D1
330
1F
100
AcDbEntity
  8
100
  6
Continuous
 62
     3
100
AcDbLine
 10
25.6904651573303
 20
266.0
 30
0.0
 11
12.734960912113
 21
265.519958642272
 31
0.0
  0
LINE
  5
1D2
330
1F
100
AcDbEntity
  8
100
  6
Continuous
 62
     3
100
AcDbLine
 10
10.247310081854
 20
261.211221012772
 30
0.0
 11
16.3093341938029
 21
249.751404538713
 31
0.0
  0
LINE
  5
1D3
330
1F
100
AcDbEntity
  8
100
  6
Continuous
 62
     3
100
AcDbLine
 10
9.38113096352736
 20
245.751404538713
 30
0.0
 11
2.48765083025902
 21
256.731179655044
 31
0.0
  0
LINE
  5
1D4
330
1F
100
AcDbEntity
  8
100
  6
Continuous
 62
     3
100
AcDbLine
 10
-2.48765083025902
 20
256.731179655044
 30
0.0
 11
-9.38113096352736
 21
245.751404538713
 31
0.0
  0
LINE
  5
1D5
330
1F
100
AcDbEntity
  8
100
  6
Continuous
 62
     3
100
AcDbLine
 10
-25.6904651573303
 20
266.0
 30
0.0
 11
-12.734960912113
 21
265.519958642272
 31
0.0
  0
LINE
  5
1D6
330
1F
100
AcDbEntity
  8
100
  6
Continuous
 62
     3
100
AcDbLine
 10
-10.2473100818539
 20
261.211221012772
 30
0.0
 11
-16.3093341938029
 21
249.751404538713
 31
0.0
  0
LINE
  5
1D7
330
1F
100
AcDbEntity
  8
100
  6
Continuous
 62
     3
100
AcDbLine
 10
-16.3093341938029
 20
290.248595461287
 30
0.0
 11
-10.2473100818539
 21
278.788778987228
 31
0.0
  0
LINE
  5
1D8
330
1F
100
AcDbEntity
  8
100
  6
Continuous
 62
     3
100
AcDbLine
 10
-12.734960912113
 20
274.480041357728
 30
0.0
 11
-25.6904651573303
 21
274.0
 31
0.0
  0
LINE
  5
1D9
330
1F
100
AcDbEntity
  8
100
  6
Continuous
 62
     3
100
AcDbLine
 10
-9.3811309635274
 20
294.248595461287
 30
0.0
 11
-2.48765083025894
 21
283.268820344956
 31
0.0
  0
LINE
  5
1DA
330
1F
100
AcDbEntity
  8
100
  6
Continuous
 62
     3
100
AcDbLine
 10
2.48765083025907
 20
283.268820344956
 30
0.0
 11
9.38113096352739
 21
294.248595461287
 31
0.0
  0
LINE
  5
1DB
330
1F
100
AcDbEntity
  8
100
  6
Continuous
 62
     3
100
AcDbLine
 10
25.6904651573303
 20
274.0
 30
0.0
 11
12.734960912113
 21
274.480041357728
 31
0.0
  0
LINE
  5
1DC
330
1F
100
AcDbEntity
  8
100
  6
Continuous
 62
     3
100
AcDbLine
 10
10.247310081854
 20
278.788778987228
 30
0.0
 11
16.3093341938029
 21
290.248595461287
 31
0.0
  0
LINE
  5
1DD
330
1F
100
AcDbEntity
  8
100
  6
Continuous
 62
     3
100
AcDbLine
 10
42.408
 20
305.0
 30
0.0
 11
43.5
 21
306.092
 31
0.0
  0
LINE
  5
1DE
330
1F
100
AcDbEntity
  8
100
  6
Continuous
 62
     3
100
AcDbLine
 10
23.3952298687209
 20
305.0
 30
0.0
 11
42.408
 21
305.0
 31
0.0
  0
LINE
  5
1DF
330
1F
100
AcDbEntity
  8
100
  6
Continuous
 62
     3
100
AcDbLine
 10
42.408
 20
235.0
 30
0.0
 11
43.5
 21
233.908
 31
0.0
  0
LINE
  5
1E0
330
1F
100
AcDbEntity
  8
100
  6
Continuous
 62
     3
100
AcDbLine
 10
23.3952298687209
 20
235.0
 30
0.0
 11
42.408
 21
235.0
 31
0.0
  0
LINE
  5
1E1
330
1F
100
AcDbEntity
  8
100
  6
Continuous
 62
     3
100
AcDbLine
 10
-42.408
 20
305.0
 30
0.0
 11
-43.5
 21
306.092
 31
0.0
  0
LINE
  5
1E2
330
1F
100
AcDbEntity
  8
100
  6
Continuous
 62
     3
100
AcDbLine
 10
-23.3952298687209
 20
305.0
 30
0.0
 11
-42.408
 21
305.0
 31
0.0
  0
LINE
  5
1E3
330
1F
100
AcDbEntity
  8
100
  6
Continuous
 62
     3
100
AcDbLine
 10
-42.408
 20
235.0
 30
0.0
 11
-43.5
 21
233.908
 31
0.0
  0
LINE
  5
1E4
330
1F
100
AcDbEntity
  8
100
  6
Continuous
 62
     3
100
AcDbLine
 10
-23.3952298687209
 20
235.0
 30
0.0
 11
-42.408
 21
235.0
 31
0.0
  0
LINE
  5
1E5
330
1F
100
AcDbEntity
  8
2
  6
CENTER
 62
     6
100
AcDbLine
 10
-40.9999999302255
 20
164.5
 30
0.0
 11
40.9999999302253
 21
164.5
 31
0.0
  0
LINE
  5
1E6
330
1F
100
AcDbEntity
  8
2
  6
CENTER
 62
     6
100
AcDbLine
 10
40.9999999302253
 20
150.5
 30
0.0
 11
16.8932203321371
 21
150.5
 31
0.0
  0
LINE
  5
1E7
330
1F
100
AcDbEntity
  8
2
  6
CENTER
 62
     6
100
AcDbLine
 10
-16.8932203321371
 20
150.5
 30
0.0
 11
-40.9999999302253
 21
150.5
 31
0.0
  0
LINE
  5
1E8
330
1F
100
AcDbEntity
  8
2
  6
CENTER
 62
     6
100
AcDbLine
 10
12.7435344872925
 20
148.217672785336
 30
0.0
 11
16.8932203321371
 21
150.5
 31
0.0
  0
LINE
  5
1E9
330
1F
100
AcDbEntity
  8
2
  6
CENTER
 62
     6
100
AcDbLine
 10
11.9999999302253
 20
144.5
 30
0.0
 11
12.7435344872925
 21
148.217672785336
 31
0.0
  0
LINE
  5
1EA
330
1F
100
AcDbEntity
  8
2
  6
CENTER
 62
     6
100
AcDbLine
 10
-11.9999999302253
 20
144.5
 30
0.0
 11
11.9999999302253
 21
144.5
 31
0.0
  0
LINE
  5
1EB
330
1F
100
AcDbEntity
  8
2
  6
CENTER
 62
     6
100
AcDbLine
 10
-11.9999999302253
 20
144.5
 30
0.0
 11
-12.7435344872925
 21
148.217672785335
 31
0.0
  0
LINE
  5
1EC
330
1F
100
AcDbEntity
  8
2
  6
CENTER
 62
     6
100
AcDbLine
 10
-12.7435344872925
 20
148.217672785335
 30
0.0
 11
-16.8932203321371
 21
150.5
 31
0.0
  0
LINE
  5
1ED
330
1F
100
AcDbEntity
  8
100
  6
Continuous
 62
     3
100
AcDbLine
 10
-15.0
 20
118.0
 30
0.0
 11
15.0
 21
118.0
 31
0.0
  0
LINE
  5
1EE
330
1F
100
AcDbEntity
  8
100
  6
Continuous
 62
     3
100
AcDbLine
 10
255.0
 20
118.0
 30
0.0
 11
285.0
 21
118.0
 31
0.0
  0
LINE
  5
1EF
330
1F
100
AcDbEntity
  8
100
  6
Continuous
 62
     3
100
AcDbLine
 10
12.9226875
 20
-156.0
 30
0.0
 11
-12.9226875
 21
-156.0
 31
0.0
  0
LINE
  5
1F0
330
1F
100
AcDbEntity
  8
100
  6
Continuous
 62
     3
100
AcDbLine
 10
-12.9226875
 20
-156.0
 30
0.0
 11
-13.1
 21
-150.326
 31
0.0
  0
LINE
  5
1F1
330
1F
100
AcDbEntity
  8
2
  6
Continuous
 62
     1
100
AcDbLine
 10
-12.3544375
 20
-137.0
 30
0.0
 11
-11.7606875
 21
-156.0
 31
0.0
  0
LINE
  5
1F2
330
1F
100
AcDbEntity
  8
100
  6
Continuous
 62
     3
100
AcDbLine
 10
12.9226875
 20
-156.0
 30
0.0
 11
13.1
 21
-150.326
 31
0.0
  0
LINE
  5
1F3
330
1F
100
AcDbEntity
  8
2
  6
Continuous
 62
     1
100
AcDbLine
 10
12.3544375
 20
-137.0
 30
0.0
 11
11.7606875
 21
-156.0
 31
0.0
  0
LINE
  5
1F4
330
1F
100
AcDbEntity
  8
100
  6
Continuous
 62
     3
100
AcDbLine
 10
13.1
 20
-137.0
 30
0.0
 11
-13.1
 21
-137.0
 31
0.0
  0
LINE
  5
1F5
330
1F
100
AcDbEntity
  8
2
  6
Continuous
 62
     3
100
AcDbLine
 10
-12.3544375
 20
-137.0
 30
0.0
 11
-13.1
 21
-135.708647869782
 31
0.0
  0
LINE
  5
1F6
330
1F
100
AcDbEntity
  8
2
  6
Continuous
 62
     3
100
AcDbLine
 10
12.3544375
 20
-137.0
 30
0.0
 11
13.1
 21
-135.708647869782
 31
0.0
  0
LINE
  5
1F7
330
1F
100
AcDbEntity
  8
100
  6
Continuous
 62
     3
100
AcDbLine
 10
21.9393102292058
 20
-110.5
 30
0.0
 11
-21.9393102292058
 21
-110.5
 31
0.0
  0
LINE
  5
1F8
330
1F
100
AcDbEntity
  8
100
  6
Continuous
 62
     3
100
AcDbLine
 10
-21.9393102292058
 20
-110.5
 30
0.0
 11
-21.9393102292058
 21
-88.5
 31
0.0
  0
LINE
  5
1F9
330
1F
100
AcDbEntity
  8
100
  6
Continuous
 62
     3
100
AcDbLine
 10
21.9393102292058
 20
-88.5
 30
0.0
 11
-21.9393102292058
 21
-88.5
 31
0.0
  0
LINE
  5
1FA
330
1F
100
AcDbEntity
  8
100
  6
Continuous
 62
     3
100
AcDbLine
 10
-10.9696551146029
 20
-110.5
 30
0.0
 11
-10.9696551146029
 21
-88.5
 31
0.0
  0
LINE
  5
1FB
330
1F
100
AcDbEntity
  8
100
  6
Continuous
 62
     3
100
AcDbLine
 10
10.9696551146029
 20
-110.5
 30
0.0
 11
10.9696551146029
 21
-88.5
 31
0.0
  0
LINE
  5
1FC
330
1F
100
AcDbEntity
  8
100
  6
Continuous
 62
     3
100
AcDbLine
 10
21.9393102292058
 20
-110.5
 30
0.0
 11
21.9393102292058
 21
-88.5
 31
0.0
  0
LINE
  5
1FD
330
1F
100
AcDbEntity
  8
100
  6
Continuous
 62
     3
100
AcDbLine
 10
-13.1
 20
-150.326
 30
0.0
 11
-13.1
 21
-110.5
 31
0.0
  0
LINE
  5
1FE
330
1F
100
AcDbEntity
  8
100
  6
Continuous
 62
     3
100
AcDbLine
 10
13.1
 20
-150.326
 30
0.0
 11
13.1
 21
-110.5
 31
0.0
  0
LINE
  5
1FF
330
1F
100
AcDbEntity
  8
2
  6
Continuous
 62
     3
100
AcDbLine
 10
257.6455625
 20
-137.0
 30
0.0
 11
256.9
 21
-135.708647869782
 31
0.0
  0
LINE
  5
200
330
1F
100
AcDbEntity
  8
100
  6
Continuous
 62
     3
100
AcDbLine
 10
283.1
 20
-137.0
 30
0.0
 11
256.9
 21
-137.0
 31
0.0
  0
LINE
  5
201
330
1F
100
AcDbEntity
  8
2
  6
Continuous
 62
     3
100
AcDbLine
 10
282.3544375
 20
-137.0
 30
0.0
 11
283.1
 21
-135.708647869782
 31
0.0
  0
LINE
  5
202
330
1F
100
AcDbEntity
  8
100
  6
Continuous
 62
     3
100
AcDbLine
 10
257.0773125
 20
-156.0
 30
0.0
 11
256.9
 21
-150.326
 31
0.0
  0
LINE
  5
203
330
1F
100
AcDbEntity
  8
100
  6
Continuous
 62
     3
100
AcDbLine
 10
282.9226875
 20
-156.0
 30
0.0
 11
257.0773125
 21
-156.0
 31
0.0
  0
LINE
  5
204
330
1F
100
AcDbEntity
  8
100
  6
Continuous
 62
     3
100
AcDbLine
 10
282.9226875
 20
-156.0
 30
0.0
 11
283.1
 21
-150.326
 31
0.0
  0
LINE
  5
205
330
1F
100
AcDbEntity
  8
2
  6
Continuous
 62
     1
100
AcDbLine
 10
282.3544375
 20
-137.0
 30
0.0
 11
281.7606875
 21
-156.0
 31
0.0
  0
LINE
  5
206
330
1F
100
AcDbEntity
  8
2
  6
Continuous
 62
     1
100
AcDbLine
 10
257.6455625
 20
-137.0
 30
0.0
 11
258.2393125
 21
-156.0
 31
0.0
  0
LINE
  5
207
330
1F
100
AcDbEntity
  8
100
  6
Continuous
 62
     3
100
AcDbLine
 10
289.0
 20
-110.5
 30
0.0
 11
251.0
 21
-110.5
 31
0.0
  0
LINE
  5
208
330
1F
100
AcDbEntity
  8
100
  6
Continuous
 62
     3
100
AcDbLine
 10
289.0
 20
-88.5
 30
0.0
 11
251.0
 21
-88.5
 31
0.0
  0
LINE
  5
209
330
1F
100
AcDbEntity
  8
100
  6
Continuous
 62
     3
100
AcDbLine
 10
256.9
 20
-150.326
 30
0.0
 11
256.9
 21
-110.5
 31
0.0
  0
LINE
  5
20A
330
1F
100
AcDbEntity
  8
100
  6
Continuous
 62
     3
100
AcDbLine
 10
283.1
 20
-150.326
 30
0.0
 11
283.1
 21
-110.5
 31
0.0
  0
LINE
  5
20B
330
1F
100
AcDbEntity
  8
100
  6
Continuous
 62
     3
100
AcDbLine
 10
289.0
 20
-110.5
 30
0.0
 11
289.0
 21
-88.5
 31
0.0
  0
LINE
  5
20C
330
1F
100
AcDbEntity
  8
100
  6
Continuous
 62
     3
100
AcDbLine
 10
251.0
 20
-110.5
 30
0.0
 11
251.0
 21
-88.5
 31
0.0
  0
LINE
  5
20D
330
1F
100
AcDbEntity
  8
100
  6
Continuous
 62
     3
100
AcDbLine
 10
270.0
 20
-110.5
 30
0.0
 11
270.0
 21
-88.5
 31
0.0
  0
LINE
  5
20E
330
1F
100
AcDbEntity
  8
100
  6
Continuous
 62
     3
100
AcDbLine
 10
-159.0
 20
29.31075
 30
0.0
 11
-136.944
 21
30.0
 31
0.0
  0
LINE
  5
20F
330
1F
100
AcDbEntity
  8
2
  6
Continuous
 62
     1
100
AcDbLine
 10
-127.0
 20
28.83175
 30
0.0
 11
-159.0
 21
27.83175
 31
0.0
  0
LINE
  5
210
330
1F
100
AcDbEntity
  8
100
  6
Continuous
 62
     3
100
AcDbLine
 10
-159.0
 20
-29.31075
 30
0.0
 11
-136.944
 21
-30.0
 31
0.0
  0
LINE
  5
211
330
1F
100
AcDbEntity
  8
2
  6
Continuous
 62
     1
100
AcDbLine
 10
-127.0
 20
-28.83175
 30
0.0
 11
-159.0
 21
-27.83175
 31
0.0
  0
LINE
  5
212
330
1F
100
AcDbEntity
  8
100
  6
Continuous
 62
     3
100
AcDbLine
 10
-127.0
 20
-30.0
 30
0.0
 11
-127.0
 21
30.0
 31
0.0
  0
LINE
  5
213
330
1F
100
AcDbEntity
  8
2
  6
Continuous
 62
     3
100
AcDbLine
 10
-127.0
 20
-28.83175
 30
0.0
 11
-124.976531644058
 21
-30.0
 31
0.0
  0
LINE
  5
214
330
1F
100
AcDbEntity
  8
2
  6
Continuous
 62
     3
100
AcDbLine
 10
-127.0
 20
28.83175
 30
0.0
 11
-124.976531644058
 21
30.0
 31
0.0
  0
LINE
  5
215
330
1F
100
AcDbEntity
  8
100
  6
Continuous
 62
     3
100
AcDbLine
 10
-136.944
 20
30.0
 30
0.0
 11
-80.0
 21
30.0
 31
0.0
  0
LINE
  5
216
330
1F
100
AcDbEntity
  8
100
  6
Continuous
 62
     3
100
AcDbLine
 10
-136.944
 20
-30.0
 30
0.0
 11
-80.0
 21
-30.0
 31
0.0
  0
LINE
  5
217
330
1F
100
AcDbEntity
  8
100
  6
Continuous
 62
     3
100
AcDbLine
 10
-80.0
 20
44.3780802119882
 30
0.0
 11
-43.5
 21
44.3780802119882
 31
0.0
  0
LINE
  5
218
330
1F
100
AcDbEntity
  8
100
  6
Continuous
 62
     3
100
AcDbLine
 10
-80.0
 20
31.3800414539374
 30
0.0
 11
-43.5
 21
31.3800414539374
 31
0.0
  0
LINE
  5
219
330
1F
100
AcDbEntity
  8
100
  6
Continuous
 62
     3
100
AcDbLine
 10
-80.0
 20
-44.3780802119882
 30
0.0
 11
-43.5
 21
-44.3780802119882
 31
0.0
  0
LINE
  5
21A
330
1F
100
AcDbEntity
  8
100
  6
Continuous
 62
     3
100
AcDbLine
 10
-80.0
 20
-31.3800414539374
 30
0.0
 11
-43.5
 21
-31.3800414539374
 31
0.0
  0
LINE
  5
21B
330
1F
100
AcDbEntity
  8
100
  6
Continuous
 62
     3
100
AcDbLine
 10
-80.0
 20
0.00000000000003
 30
0.0
 11
-43.5
 21
0.0
 31
0.0
  0
LINE
  5
21C
330
1F
100
AcDbEntity
  8
100
  6
Continuous
 62
     3
100
AcDbLine
 10
-80.0
 20
-44.3780802119882
 30
0.0
 11
-80.0
 21
44.3780802119882
 31
0.0
  0
LINE
  5
21D
330
1F
100
AcDbEntity
  8
100
  6
Continuous
 62
     3
100
AcDbLine
 10
-43.5
 20
-44.3780802119882
 30
0.0
 11
-43.5
 21
44.3780802119882
 31
0.0
  0
LINE
  5
21E
330
1F
100
AcDbEntity
  8
100
  6
Continuous
 62
     3
100
AcDbLine
 10
-159.0
 20
-29.31075
 30
0.0
 11
-159.0
 21
29.31075
 31
0.0
  0
LINE
  5
21F
330
1F
100
AcDbEntity
  8
100
  6
Continuous
 62
     3
100
AcDbLine
 10
-159.0
 20
299.31075
 30
0.0
 11
-136.944
 21
300.0
 31
0.0
  0
LINE
  5
220
330
1F
100
AcDbEntity
  8
2
  6
Continuous
 62
     1
100
AcDbLine
 10
-127.0
 20
298.83175
 30
0.0
 11
-159.0
 21
297.83175
 31
0.0
  0
LINE
  5
221
330
1F
100
AcDbEntity
  8
100
  6
Continuous
 62
     3
100
AcDbLine
 10
-159.0
 20
240.68925
 30
0.0
 11
-136.944
 21
240.0
 31
0.0
  0
LINE
  5
222
330
1F
100
AcDbEntity
  8
2
  6
Continuous
 62
     1
100
AcDbLine
 10
-127.0
 20
241.16825
 30
0.0
 11
-159.0
 21
242.16825
 31
0.0
  0
LINE
  5
223
330
1F
100
AcDbEntity
  8
100
  6
Continuous
 62
     3
100
AcDbLine
 10
-127.0
 20
240.0
 30
0.0
 11
-127.0
 21
300.0
 31
0.0
  0
LINE
  5
224
330
1F
100
AcDbEntity
  8
2
  6
Continuous
 62
     3
100
AcDbLine
 10
-127.0
 20
241.16825
 30
0.0
 11
-124.976531644058
 21
240.0
 31
0.0
  0
LINE
  5
225
330
1F
100
AcDbEntity
  8
2
  6
Continuous
 62
     3
100
AcDbLine
 10
-127.0
 20
298.83175
 30
0.0
 11
-124.976531644058
 21
300.0
 31
0.0
  0
LINE
  5
226
330
1F
100
AcDbEntity
  8
100
  6
Continuous
 62
     3
100
AcDbLine
 10
-136.944
 20
300.0
 30
0.0
 11
-80.0
 21
300.0
 31
0.0
  0
LINE
  5
227
330
1F
100
AcDbEntity
  8
100
  6
Continuous
 62
     3
100
AcDbLine
 10
-136.944
 20
240.0
 30
0.0
 11
-80.0
 21
240.0
 31
0.0
  0
LINE
  5
228
330
1F
100
AcDbEntity
  8
100
  6
Continuous
 62
     3
100
AcDbLine
 10
-80.0
 20
314.378080211988
 30
0.0
 11
-43.5
 21
314.378080211988
 31
0.0
  0
LINE
  5
229
330
1F
100
AcDbEntity
  8
100
  6
Continuous
 62
     3
100
AcDbLine
 10
-80.0
 20
301.380041453937
 30
0.0
 11
-43.5
 21
301.380041453937
 31
0.0
  0
LINE
  5
22A
330
1F
100
AcDbEntity
  8
100
  6
Continuous
 62
     3
100
AcDbLine
 10
-80.0
 20
225.621919788012
 30
0.0
 11
-43.5
 21
225.621919788012
 31
0.0
  0
LINE
  5
22B
330
1F
100
AcDbEntity
  8
100
  6
Continuous
 62
     3
100
AcDbLine
 10
-80.0
 20
238.619958546063
 30
0.0
 11
-43.5
 21
238.619958546063
 31
0.0
  0
LINE
  5
22C
330
1F
100
AcDbEntity
  8
100
  6
Continuous
 62
     3
100
AcDbLine
 10
-80.0
 20
270.0
 30
0.0
 11
-43.5
 21
270.0
 31
0.0
  0
LINE
  5
22D
330
1F
100
AcDbEntity
  8
100
  6
Continuous
 62
     3
100
AcDbLine
 10
-80.0
 20
225.621919788012
 30
0.0
 11
-80.0
 21
314.378080211988
 31
0.0
  0
LINE
  5
22E
330
1F
100
AcDbEntity
  8
100
  6
Continuous
 62
     3
100
AcDbLine
 10
-43.5
 20
225.621919788012
 30
0.0
 11
-43.5
 21
314.378080211988
 31
0.0
  0
LINE
  5
22F
330
1F
100
AcDbEntity
  8
100
  6
Continuous
 62
     3
100
AcDbLine
 10
-159.0
 20
240.68925
 30
0.0
 11
-159.0
 21
299.31075
 31
0.0
  0
LINE
  5
230
330
1F
100
AcDbEntity
  8
100
  6
Continuous
 62
     3
100
AcDbLine
 10
159.0
 20
29.31075
 30
0.0
 11
136.944
 21
30.0
 31
0.0
  0
LINE
  5
231
330
1F
100
AcDbEntity
  8
2
  6
Continuous
 62
     1
100
AcDbLine
 10
127.0
 20
28.83175
 30
0.0
 11
159.0
 21
27.83175
 31
0.0
  0
LINE
  5
232
330
1F
100
AcDbEntity
  8
100
  6
Continuous
 62
     3
100
AcDbLine
 10
159.0
 20
-29.31075
 30
0.0
 11
136.944
 21
-30.0
 31
0.0
  0
LINE
  5
233
330
1F
100
AcDbEntity
  8
2
  6
Continuous
 62
     1
100
AcDbLine
 10
127.0
 20
-28.83175
 30
0.0
 11
159.0
 21
-27.83175
 31
0.0
  0
LINE
  5
234
330
1F
100
AcDbEntity
  8
100
  6
Continuous
 62
     3
100
AcDbLine
 10
127.0
 20
-30.0
 30
0.0
 11
127.0
 21
30.0
 31
0.0
  0
LINE
  5
235
330
1F
100
AcDbEntity
  8
2
  6
Continuous
 62
     3
100
AcDbLine
 10
127.0
 20
-28.83175
 30
0.0
 11
124.976531644058
 21
-30.0
 31
0.0
  0
LINE
  5
236
330
1F
100
AcDbEntity
  8
2
  6
Continuous
 62
     3
100
AcDbLine
 10
127.0
 20
28.83175
 30
0.0
 11
124.976531644058
 21
30.0
 31
0.0
  0
LINE
  5
237
330
1F
100
AcDbEntity
  8
100
  6
Continuous
 62
     3
100
AcDbLine
 10
136.944
 20
30.0
 30
0.0
 11
80.0
 21
30.0
 31
0.0
  0
LINE
  5
238
330
1F
100
AcDbEntity
  8
100
  6
Continuous
 62
     3
100
AcDbLine
 10
136.944
 20
-30.0
 30
0.0
 11
80.0
 21
-30.0
 31
0.0
  0
LINE
  5
239
330
1F
100
AcDbEntity
  8
100
  6
Continuous
 62
     3
100
AcDbLine
 10
80.0
 20
44.3780802119882
 30
0.0
 11
43.5
 21
44.3780802119882
 31
0.0
  0
LINE
  5
23A
330
1F
100
AcDbEntity
  8
100
  6
Continuous
 62
     3
100
AcDbLine
 10
80.0
 20
31.3800414539374
 30
0.0
 11
43.5
 21
31.3800414539374
 31
0.0
  0
LINE
  5
23B
330
1F
100
AcDbEntity
  8
100
  6
Continuous
 62
     3
100
AcDbLine
 10
80.0
 20
-44.3780802119882
 30
0.0
 11
43.5
 21
-44.3780802119882
 31
0.0
  0
LINE
  5
23C
330
1F
100
AcDbEntity
  8
100
  6
Continuous
 62
     3
100
AcDbLine
 10
80.0
 20
-31.3800414539374
 30
0.0
 11
43.5
 21
-31.3800414539374
 31
0.0
  0
LINE
  5
23D
330
1F
100
AcDbEntity
  8
100
  6
Continuous
 62
     3
100
AcDbLine
 10
80.0
 20
0.00000000000003
 30
0.0
 11
43.5
 21
0.0
 31
0.0
  0
LINE
  5
23E
330
1F
100
AcDbEntity
  8
100
  6
Continuous
 62
     3
100
AcDbLine
 10
80.0
 20
-44.3780802119882
 30
0.0
 11
80.0
 21
44.3780802119882
 31
0.0
  0
LINE
  5
23F
330
1F
100
AcDbEntity
  8
100
  6
Continuous
 62
     3
100
AcDbLine
 10
43.5
 20
-44.3780802119882
 30
0.0
 11
43.5
 21
44.3780802119882
 31
0.0
  0
LINE
  5
240
330
1F
100
AcDbEntity
  8
100
  6
Continuous
 62
     3
100
AcDbLine
 10
159.0
 20
-29.31075
 30
0.0
 11
159.0
 21
29.31075
 31
0.0
  0
LINE
  5
241
330
1F
100
AcDbEntity
  8
100
  6
Continuous
 62
     3
100
AcDbLine
 10
159.0
 20
299.31075
 30
0.0
 11
136.944
 21
300.0
 31
0.0
  0
LINE
  5
242
330
1F
100
AcDbEntity
  8
2
  6
Continuous
 62
     1
100
AcDbLine
 10
127.0
 20
298.83175
 30
0.0
 11
159.0
 21
297.83175
 31
0.0
  0
LINE
  5
243
330
1F
100
AcDbEntity
  8
100
  6
Continuous
 62
     3
100
AcDbLine
 10
159.0
 20
240.68925
 30
0.0
 11
136.944
 21
240.0
 31
0.0
  0
LINE
  5
244
330
1F
100
AcDbEntity
  8
2
  6
Continuous
 62
     1
100
AcDbLine
 10
127.0
 20
241.16825
 30
0.0
 11
159.0
 21
242.16825
 31
0.0
  0
LINE
  5
245
330
1F
100
AcDbEntity
  8
100
  6
Continuous
 62
     3
100
AcDbLine
 10
127.0
 20
240.0
 30
0.0
 11
127.0
 21
300.0
 31
0.0
  0
LINE
  5
246
330
1F
100
AcDbEntity
  8
2
  6
Continuous
 62
     3
100
AcDbLine
 10
127.0
 20
241.16825
 30
0.0
 11
124.976531644058
 21
240.0
 31
0.0
  0
LINE
  5
247
330
1F
100
AcDbEntity
  8
2
  6
Continuous
 62
     3
100
AcDbLine
 10
127.0
 20
298.83175
 30
0.0
 11
124.976531644058
 21
300.0
 31
0.0
  0
LINE
  5
248
330
1F
100
AcDbEntity
  8
100
  6
Continuous
 62
     3
100
AcDbLine
 10
136.944
 20
300.0
 30
0.0
 11
80.0
 21
300.0
 31
0.0
  0
LINE
  5
249
330
1F
100
AcDbEntity
  8
100
  6
Continuous
 62
     3
100
AcDbLine
 10
136.944
 20
240.0
 30
0.0
 11
80.0
 21
240.0
 31
0.0
  0
LINE
  5
24A
330
1F
100
AcDbEntity
  8
100
  6
Continuous
 62
     3
100
AcDbLine
 10
80.0
 20
314.378080211988
 30
0.0
 11
43.5
 21
314.378080211988
 31
0.0
  0
LINE
  5
24B
330
1F
100
AcDbEntity
  8
100
  6
Continuous
 62
     3
100
AcDbLine
 10
80.0
 20
301.380041453937
 30
0.0
 11
43.5
 21
301.380041453937
 31
0.0
  0
LINE
  5
24C
330
1F
100
AcDbEntity
  8
100
  6
Continuous
 62
     3
100
AcDbLine
 10
80.0
 20
225.621919788012
 30
0.0
 11
43.5
 21
225.621919788012
 31
0.0
  0
LINE
  5
24D
330
1F
100
AcDbEntity
  8
100
  6
Continuous
 62
     3
100
AcDbLine
 10
80.0
 20
238.619958546063
 30
0.0
 11
43.5
 21
238.619958546063
 31
0.0
  0
LINE
  5
24E
330
1F
100
AcDbEntity
  8
100
  6
Continuous
 62
     3
100
AcDbLine
 10
80.0
 20
270.0
 30
0.0
 11
43.5
 21
270.0
 31
0.0
  0
LINE
  5
24F
330
1F
100
AcDbEntity
  8
100
  6
Continuous
 62
     3
100
AcDbLine
 10
80.0
 20
225.621919788012
 30
0.0
 11
80.0
 21
314.378080211988
 31
0.0
  0
LINE
  5
250
330
1F
100
AcDbEntity
  8
100
  6
Continuous
 62
     3
100
AcDbLine
 10
43.5
 20
225.621919788012
 30
0.0
 11
43.5
 21
314.378080211988
 31
0.0
  0
LINE
  5
251
330
1F
100
AcDbEntity
  8
100
  6
Continuous
 62
     3
100
AcDbLine
 10
159.0
 20
240.68925
 30
0.0
 11
159.0
 21
299.31075
 31
0.0
  0
LINE
  5
252
330
1F
100
AcDbEntity
  8
100
  6
Continuous
 62
     3
100
AcDbLine
 10
314.378080211988
 20
0.0
 30
0.0
 11
301.380041453937
 21
31.3800414539374
 31
0.0
  0
LINE
  5
253
330
1F
100
AcDbEntity
  8
100
  6
Continuous
 62
     3
100
AcDbLine
 10
301.380041453937
 20
31.3800414539374
 30
0.0
 11
270.0
 21
44.3780802119882
 31
0.0
  0
LINE
  5
254
330
1F
100
AcDbEntity
  8
100
  6
Continuous
 62
     3
100
AcDbLine
 10
270.0
 20
44.3780802119882
 30
0.0
 11
238.619958546063
 21
31.3800414539374
 31
0.0
  0
LINE
  5
255
330
1F
100
AcDbEntity
  8
100
  6
Continuous
 62
     3
100
AcDbLine
 10
238.619958546063
 20
31.3800414539374
 30
0.0
 11
225.621919788012
 21
0.00000000000001
 31
0.0
  0
LINE
  5
256
330
1F
100
AcDbEntity
  8
100
  6
Continuous
 62
     3
100
AcDbLine
 10
225.621919788012
 20
0.00000000000001
 30
0.0
 11
238.619958546063
 21
-31.3800414539373
 31
0.0
  0
LINE
  5
257
330
1F
100
AcDbEntity
  8
100
  6
Continuous
 62
     3
100
AcDbLine
 10
238.619958546063
 20
-31.3800414539373
 30
0.0
 11
270.0
 21
-44.3780802119881
 31
0.0
  0
LINE
  5
258
330
1F
100
AcDbEntity
  8
100
  6
Continuous
 62
     3
100
AcDbLine
 10
270.0
 20
-44.3780802119881
 30
0.0
 11
301.380041453937
 21
-31.3800414539374
 31
0.0
  0
LINE
  5
259
330
1F
100
AcDbEntity
  8
100
  6
Continuous
 62
     3
100
AcDbLine
 10
301.380041453937
 20
-31.3800414539374
 30
0.0
 11
314.378080211988
 21
0.0
 31
0.0
  0
ARC
  5
25A
330
1F
100
AcDbEntity
  8
100
  6
Continuous
 62
     3
100
AcDbCircle
 10
291.098052615898
 20
186.0
 30
0.0
 40
16.77982419454984
100
AcDbArc
 50
335.3441012559184
 51
24.65589874408161
  0
ARC
  5
25B
330
1F
100
AcDbEntity
  8
100
  6
Continuous
 62
     3
100
AcDbCircle
 10
259.106690606792
 20
186.0
 30
0.0
 40
16.77982419454984
100
AcDbArc
 50
335.3441012559184
 51
24.65589874408161
  0
ARC
  5
25C
330
1F
100
AcDbEntity
  8
100
  6
Continuous
 62
     3
100
AcDbCircle
 10
248.901947384102
 20
186.0
 30
0.0
 40
16.77982419454984
100
AcDbArc
 50
155.3441012559184
 51
204.6558987440816
  0
ARC
  5
25D
330
1F
100
AcDbEntity
  8
100
  6
Continuous
 62
     3
100
AcDbCircle
 10
280.893309393208
 20
186.0
 30
0.0
 40
16.77982419454984
100
AcDbArc
 50
155.3441012559184
 51
204.6558987440816
  0
ARC
  5
25E
330
1F
100
AcDbEntity
  8
100
  6
Continuous
 62
     3
100
AcDbCircle
 10
0.0
 20
-61.3410084812659
 30
0.0
 40
104.5000000000001
100
AcDbArc
 50
67.2089282811039
 51
75.87612470313452
  0
ARC
  5
25F
330
1F
100
AcDbEntity
  8
100
  6
Continuous
 62
     3
100
AcDbCircle
 10
0.0
 20
61.3410084812659
 30
0.0
 40
104.5
100
AcDbArc
 50
284.1238752968655
 51
292.7910717188961
  0
ARC
  5
260
330
1F
100
AcDbEntity
  8
100
  6
Continuous
 62
     3
100
AcDbCircle
 10
0.0
 20
-61.3410084812659
 30
0.0
 40
104.5
100
AcDbArc
 50
104.1238752968655
 51
112.7910717188961
  0
ARC
  5
261
330
1F
100
AcDbEntity
  8
100
  6
Continuous
 62
     3
100
AcDbCircle
 10
0.0
 20
61.3410084812659
 30
0.0
 40
104.5000000000001
100
AcDbArc
 50
247.2089282811039
 51
255.8761247031345
  0
ARC
  5
262
330
1F
100
AcDbEntity
  8
100
  6
Continuous
 62
     3
100
AcDbCircle
 10
-8.4999999302253
 20
186.0
 30
0.0
 40
16.77982419454992
100
AcDbArc
 50
155.3441012559185
 51
204.6558987440814
  0
ARC
  5
263
330
1F
100
AcDbEntity
  8
100
  6
Continuous
 62
     3
100
AcDbCircle
 10
-25.7499999302253
 20
186.0
 30
0.0
 40
16.77982419455002
100
AcDbArc
 50
155.3441012559187
 51
204.6558987440814
  0
ARC
  5
264
330
1F
100
AcDbEntity
  8
100
  6
Continuous
 62
     3
100
AcDbCircle
 10
8.4999999302253
 20
186.0
 30
0.0
 40
16.77982419454992
100
AcDbArc
 50
335.3441012559185
 51
24.65589874408147
  0
ARC
  5
265
330
1F
100
AcDbEntity
  8
100
  6
Continuous
 62
     3
100
AcDbCircle
 10
25.7499999302253
 20
186.0
 30
0.0
 40
16.77982419454984
100
AcDbArc
 50
335.3441012559184
 51
24.65589874408161
  0
ARC
  5
266
330
1F
100
AcDbEntity
  8
100
  6
Continuous
 62
     3
100
AcDbCircle
 10
0.00000000000011
 20
355.25329967951
 30
0.0
 40
50.00000000000001
100
AcDbArc
 50
252.6976644306397
 51
287.3023355693601
  0
ARC
  5
267
330
1F
100
AcDbEntity
  8
100
  6
Continuous
 62
     3
100
AcDbCircle
 10
-73.8315232789033
 20
312.626649839755
 30
0.0
 40
49.9999999999998
100
AcDbArc
 50
312.6976644306399
 51
347.30233556936
  0
ARC
  5
268
330
1F
100
AcDbEntity
  8
100
  6
Continuous
 62
     3
100
AcDbCircle
 10
-17.25
 20
299.877876430563
 30
0.0
 40
7.999999999999877
100
AcDbArc
 50
72.69765606540022
 51
167.302335569361
  0
ARC
  5
269
330
1F
100
AcDbEntity
  8
100
  6
Continuous
 62
     3
100
AcDbCircle
 10
-17.25
 20
240.122123569437
 30
0.0
 40
7.999999999999949
100
AcDbArc
 50
192.6976644306391
 51
287.3023355693593
  0
ARC
  5
26A
330
1F
100
AcDbEntity
  8
100
  6
Continuous
 62
     3
100
AcDbCircle
 10
73.8315232789034
 20
312.626649839755
 30
0.0
 40
50.00000000000003
100
AcDbArc
 50
192.69766443064
 51
227.30233556936
  0
ARC
  5
26B
330
1F
100
AcDbEntity
  8
100
  6
Continuous
 62
     3
100
AcDbCircle
 10
17.25
 20
299.877876430563
 30
0.0
 40
8.00000000000004
100
AcDbArc
 50
12.69766443063874
 51
107.30233556936
  0
ARC
  5
26C
330
1F
100
AcDbEntity
  8
100
  6
Continuous
 62
     3
100
AcDbCircle
 10
34.5
 20
270.0
 30
0.0
 40
8.000000000000227
100
AcDbArc
 50
312.6976644306387
 51
47.30233556936178
  0
ARC
  5
26D
330
1F
100
AcDbEntity
  8
100
  6
Continuous
 62
     3
100
AcDbCircle
 10
17.25
 20
240.122123569437
 30
0.0
 40
8.00000000000016
100
AcDbArc
 50
252.69766443064
 51
347.3023355693614
  0
ARC
  5
26E
330
1F
100
AcDbEntity
  8
100
  6
Continuous
 62
     3
100
AcDbCircle
 10
0.0
 20
184.74670032049
 30
0.0
 40
50.00000000000003
100
AcDbArc
 50
72.69766443063975
 51
107.3023355693604
  0
ARC
  5
26F
330
1F
100
AcDbEntity
  8
100
  6
Continuous
 62
     3
100
AcDbCircle
 10
-73.8315232789033
 20
227.373350160245
 30
0.0
 40
50.00000000000003
100
AcDbArc
 50
12.69766443064002
 51
47.30233556936003
  0
ARC
  5
270
330
1F
100
AcDbEntity
  8
100
  6
Continuous
 62
     3
100
AcDbCircle
 10
73.8315232789034
 20
227.373350160245
 30
0.0
 40
49.99999999999982
100
AcDbArc
 50
132.6976644306399
 51
167.3023355693599
  0
ARC
  5
271
330
1F
100
AcDbEntity
  8
100
  6
Continuous
 62
     3
100
AcDbCircle
 10
-34.5
 20
270.0
 30
0.0
 40
8.00000000000016
100
AcDbArc
 50
132.6976644306382
 51
227.3023355693623
  0
ARC
  5
272
330
1F
100
AcDbEntity
  8
2
  6
CENTER
 62
     6
100
AcDbCircle
 10
25.7499999302253
 20
157.5
 30
0.0
 40
16.77982419454984
100
AcDbArc
 50
335.3441012559184
 51
24.65589874408161
  0
ARC
  5
273
330
1F
100
AcDbEntity
  8
2
  6
CENTER
 62
     6
100
AcDbCircle
 10
-25.7499999302253
 20
157.5
 30
0.0
 40
16.77982419455002
100
AcDbArc
 50
155.3441012559187
 51
204.6558987440816
  0
CIRCLE
  5
274
330
1F
100
AcDbEntity
  8
100
  6
Continuous
 62
     3
100
AcDbCircle
 10
0.0
 20
270.0
 30
0.0
 40
13.5
  0
CIRCLE
  5
275
330
1F
100
AcDbEntity
  8
100
  6
Continuous
 62
     3
100
AcDbCircle
 10
0.0
 20
270.0
 30
0.0
 40
26.0
  0
CIRCLE
  5
276
330
1F
100
AcDbEntity
  8
100
  6
Continuous
 62
     3
100
AcDbCircle
 10
270.0
 20
0.0
 30
0.0
 40
29.80700000000002
  0
CIRCLE
  5
277
330
1F
100
AcDbEntity
  8
2
  6
Continuous
 62
     3
100
AcDbCircle
 10
270.0
 20
0.0
 30
0.0
 40
28.32799999999997
  0
CIRCLE
  5
278
330
1F
100
AcDbEntity
  8
100
  6
Continuous
 62
     3
100
AcDbCircle
 10
270.0
 20
0.0
 30
0.0
 40
24.0
  0
LWPOLYLINE
  5
279
330
1F
100
AcDbEntity
  8
100
  6
Continuous
 62
     3
100
AcDbPolyline
 90
       20
 70
     1
 43
0.0
 10
1.72087287902832
 20
0.90583300590515
 10
1.72087287902832
 20
0.90583300590515
 10
1.72087287902832
 20
9.65583324432373
 10
1.99875854788348
 20
10.6751083889431
 10
2.63038255916127
 20
11.5242714456607
 10
3.52698627487324
 20
12.0858028991496
 10
4.56462287902832
 20
12.2808332443237
 10
5.6022594831834
 20
12.0858028991496
 10
6.49886319889537
 20
11.5242714456607
 10
7.13048721017316
 20
10.6751083889431
 10
7.40837287902832
 20
9.65583324432373
 10
7.40837287902832
 20
0.90583300590515
 10
7.13048721017316
 20
-0.11344213871421
 10
6.49886319889537
 20
-0.9626051954318
 10
5.6022594831834
 20
-1.52413664892071
 10
4.56462287902832
 20
-1.71916699409485
 10
3.52698627487324
 20
-1.52413664892071
 10
2.63038255916127
 20
-0.9626051954318
 10
1.99875854788348
 20
-0.11344213871421
 10
1.72087287902832
 20
0.90583300590515
  0
LWPOLYLINE
  5
27A
330
1F
100
AcDbEntity
  8
100
  6
Continuous
 62
     3
100
AcDbPolyline
 90
       10
 70
     0
 43
0.0
 10
-1.77912712097168
 20
11.8433332443237
 10
-7.46662712097168
 20
11.8433332443237
 10
-8.34162712097168
 20
5.71833324432373
 10
-6.15412712097168
 20
6.59333324432373
 10
-3.52912712097168
 20
6.59333324432373
 10
-1.34162712097168
 20
4.84333324432373
 10
-1.34162712097168
 20
0.46833300590515
 10
-3.52912712097168
 20
-1.71916699409485
 10
-6.15412712097168
 20
-1.71916699409485
 10
-8.34162712097168
 20
0.46833300590515
  0
LWPOLYLINE
  5
27B
330
1F
100
AcDbEntity
  8
100
  6
Continuous
 62
     3
100
AcDbPolyline
 90
        2
 70
     0
 43
0.0
 10
7.02763391406541
 20
290.5
 10
-7.02763391406537
 20
290.5
  0
LWPOLYLINE
  5
27C
330
1F
100
AcDbEntity
  8
100
  6
Continuous
 62
     3
100
AcDbPolyline
 90
        2
 70
     0
 43
0.0
 10
-14.2397038205483
 20
286.336109498078
 10
-21.2673377346137
 20
274.163890501922
  0
LWPOLYLINE
  5
27D
330
1F
100
AcDbEntity
  8
100
  6
Continuous
 62
     3
100
AcDbPolyline
 90
        2
 70
     0
 43
0.0
 10
-21.2673377346137
 20
265.836109498078
 10
-14.2397038205483
 20
253.663890501922
  0
LWPOLYLINE
  5
27E
330
1F
100
AcDbEntity
  8
100
  6
Continuous
 62
     3
100
AcDbPolyline
 90
        2
 70
     0
 43
0.0
 10
21.2673377346137
 20
274.163890501922
 10
14.2397038205483
 20
286.336109498078
  0
LWPOLYLINE
  5
27F
330
1F
100
AcDbEntity
  8
100
  6
Continuous
 62
     3
100
AcDbPolyline
 90
        2
 70
     0
 43
0.0
 10
14.2397038205483
 20
253.663890501922
 10
21.2673377346137
 20
265.836109498078
  0
LWPOLYLINE
  5
280
330
1F
100
AcDbEntity
  8
100
  6
Continuous
 62
     3
100
AcDbPolyline
 90
        2
 70
     0
 43
0.0
 10
-7.02763391406541
 20
249.5
 10
7.02763391406537
 20
249.5
  0
LEADER
  5
281
330
1F
100
AcDbEntity
  8
1
  6
Continuous
 62
     4
100
AcDbLeader
  3
Standard
 71
     0
 76
     3
 10
-143.120025634766
 20
-29.806999206543
 30
0.0
 10
-158.890594482422
 20
-51.828125
 30
0.0
 10
-182.054005931968
 20
-51.828125
 30
0.0
  0
LEADER
  5
282
330
1F
100
AcDbEntity
  8
1
  6
Continuous
 62
     4
100
AcDbLeader
  3
Standard
 71
     0
 76
     3
 10
143.120040893555
 20
-29.806999206543
 30
0.0
 10
159.391647338867
 20
-55.0154571533203
 30
0.0
 10
184.255284816836
 20
-55.0154571533203
 30
0.0
  0
LEADER
  5
283
330
1F
100
AcDbEntity
  8
1
  6
Continuous
 62
     4
100
AcDbLeader
  3
Standard
 71
     0
 76
     3
 10
13.0999937057495
 20
-146.470001220703
 30
0.0
 10
37.3741005575557
 20
-170.585821484024
 30
0.0
 10
76.7788696289063
 20
-170.585821484024
 30
0.0
  0
ENDSEC
  0
SECTION
  2
OBJECTS
  0
DICTIONARY
  5
C
330
0
100
AcDbDictionary
281
     1
  3
ACAD_GROUP
350
D
  3
ACAD_LAYOUT
350
1A
  3
ACAD_MATERIAL
350
3B
  3
ACAD_MLEADERSTYLE
350
286
  3
ACAD_MLINESTYLE
350
17
  3
ACAD_PLOTSETTINGS
350
19
  3
ACAD_PLOTSTYLENAME
350
E
  3
ACAD_VISUALSTYLE
350
2A
  3
AcDbVariableDictionary
350
284
  0
DICTIONARY
  5
D
102
{ACAD_REACTORS
330
C
102
}
330
C
100
AcDbDictionary
281
     1
  0
DICTIONARY
  5
1A
102
{ACAD_REACTORS
330
C
102
}
330
C
100
AcDbDictionary
281
     1
  3
Layout1
350
1E
  3
Layout2
350
26
  3
Model
350
22
  0
DICTIONARY
  5
3B
102
{ACAD_REACTORS
330
C
102
}
330
C
100
AcDbDictionary
281
     1
  3
ByBlock
350
3D
  3
ByLayer
350
3C
  3
Global
350
3E
  0
DICTIONARY
  5
286
102
{ACAD_REACTORS
330
C
102
}
330
C
100
AcDbDictionary
281
     1
  0
DICTIONARY
  5
17
102
{ACAD_REACTORS
330
C
102
}
330
C
100
AcDbDictionary
281
     1
  3
Standard
350
18
  0
DICTIONARY
  5
19
102
{ACAD_REACTORS
330
C
102
}
330
C
100
AcDbDictionary
281
     1
  0
ACDBDICTIONARYWDFLT
  5
E
102
{ACAD_REACTORS
330
C
102
}
330
C
100
AcDbDictionary
281
     1
  3
Normal
350
F
100
AcDbDictionaryWithDefault
340
F
  0
DICTIONARY
  5
2A
102
{ACAD_REACTORS
330
C
102
}
330
C
100
AcDbDictionary
281
     1
  3
2dWireframe
350
2F
  3
3D Hidden
350
31
  3
3dWireframe
350
30
  3
Basic
350
32
  3
Brighten
350
36
  3
ColorChange
350
3A
  3
Conceptual
350
34
  3
Dim
350
35
  3
Facepattern
350
39
  3
Flat
350
2B
  3
FlatWithEdges
350
2C
  3
Gouraud
350
2D
  3
GouraudWithEdges
350
2E
  3
Linepattern
350
38
  3
Realistic
350
33
  3
Thicken
350
37
  0
DICTIONARY
  5
284
102
{ACAD_REACTORS
330
C
102
}
330
C
100
AcDbDictionary
281
     1
  3
DIMASSOC
350
287
  3
HIDETEXT
350
288
  0
LAYOUT
  5
1E
102
{ACAD_REACTORS
330
1A
102
}
330
1A
100
AcDbPlotSettings
  1

  2
none_device
  4

  6

 40
0.0
 41
0.0
 42
0.0
 43
0.0
 44
0.0
 45
0.0
 46
0.0
 47
0.0
 48
0.0
 49
0.0
140
0.0
141
0.0
142
1.0
143
1.0
 70
   688
 72
     0
 73
     0
 74
     5
  7

 75
    16
147
1.0
148
0.0
149
0.0
100
AcDbLayout
  1
Layout1
 70
     1
 71
     1
 10
0.0
 20
0.0
 11
12.0
 21
9.0
 12
0.0
 22
0.0
 32
0.0
 14
1.00000000000000E+20
 24
1.00000000000000E+20
 34
1.00000000000000E+20
 15
-1.00000000000000E+20
 25
-1.00000000000000E+20
 35
-1.00000000000000E+20
146
0.0
 13
0.0
 23
0.0
 33
0.0
 16
1.0
 26
0.0
 36
0.0
 17
0.0
 27
1.0
 37
0.0
 76
     0
330
1B
  0
LAYOUT
  5
26
102
{ACAD_REACTORS
330
1A
102
}
330
1A
100
AcDbPlotSettings
  1

  2
none_device
  4

  6

 40
0.0
 41
0.0
 42
0.0
 43
0.0
 44
0.0
 45
0.0
 46
0.0
 47
0.0
 48
0.0
 49
0.0
140
0.0
141
0.0
142
1.0
143
1.0
 70
   688
 72
     0
 73
     0
 74
     5
  7

 75
    16
147
1.0
148
0.0
149
0.0
100
AcDbLayout
  1
Layout2
 70
     1
 71
     2
 10
0.0
 20
0.0
 11
0.0
 21
0.0
 12
0.0
 22
0.0
 32
0.0
 14
0.0
 24
0.0
 34
0.0
 15
0.0
 25
0.0
 35
0.0
146
0.0
 13
0.0
 23
0.0
 33
0.0
 16
1.0
 26
0.0
 36
0.0
 17
0.0
 27
1.0
 37
0.0
 76
     0
330
23
  0
LAYOUT
  5
22
102
{ACAD_REACTORS
330
1A
102
}
330
1A
100
AcDbPlotSettings
  1

  2
none_device
  4

  6

 40
0.0
 41
0.0
 42
0.0
 43
0.0
 44
0.0
 45
0.0
 46
0.0
 47
0.0
 48
0.0
 49
0.0
140
0.0
141
0.0
142
1.0
143
1.0
 70
  1712
 72
     0
 73
     0
 74
     0
  7

 75
     0
147
1.0
148
0.0
149
0.0
100
AcDbLayout
  1
Model
 70
     1
 71
     0
 10
0.0
 20
0.0
 11
12.0
 21
9.0
 12
0.0
 22
0.0
 32
0.0
 14
-182.054005931968
 24
-170.585821484024
 34
0.0
 15
315.0
 25
315.0
 35
0.0
146
0.0
 13
0.0
 23
0.0
 33
0.0
 16
1.0
 26
0.0
 36
0.0
 17
0.0
 27
1.0
 37
0.0
 76
     0
330
1F
331
29
  0
MATERIAL
  5
3D
102
{ACAD_REACTORS
330
3B
102
}
102
{ACAD_XDICTIONARY
360
2AB
102
}
330
3B
100
AcDbMaterial
  1
ByBlock
  0
MATERIAL
  5
3C
102
{ACAD_REACTORS
330
3B
102
}
102
{ACAD_XDICTIONARY
360
2A9
102
}
330
3B
100
AcDbMaterial
  1
ByLayer
  0
MATERIAL
  5
3E
102
{ACAD_REACTORS
330
3B
102
}
102
{ACAD_XDICTIONARY
360
2AD
102
}
330
3B
100
AcDbMaterial
  1
Global
  0
MLINESTYLE
  5
18
102
{ACAD_REACTORS
330
17
102
}
330
17
100
AcDbMlineStyle
  2
Standard
 70
     0
  3

 62
   256
 51
90.0
 52
90.0
 71
     2
 49
0.5
 62
   256
  6
BYLAYER
 49
-0.5
 62
   256
  6
BYLAYER
  0
ACDBPLACEHOLDER
  5
F
102
{ACAD_REACTORS
330
E
102
}
330
E
  0
VISUALSTYLE
  5
2F
102
{ACAD_REACTORS
330
2A
102
}
102
{ACAD_XDICTIONARY
360
291
102
}
330
2A
100
AcDbVisualStyle
  2
2dWireframe
 70
     4
 71
     0
 72
     2
 73
     0
 90
        0
 40
-0.6
 41
-30.0
 62
     5
 63
     7
 74
     1
 91
        4
 64
     7
 65
   257
 75
     1
175
     1
 42
1.0
 92
        0
 66
   257
 43
1.0
 76
     1
 77
     6
 78
     2
 67
     7
 79
     5
170
     0
171
     0
290
     0
174
     0
 93
        1
 44
0.0
173
     0
291
     0
 45
0.0
1001
ACAD
1000
AcDbSavedByObjectVersion
1070
     0
  0
VISUALSTYLE
  5
31
102
{ACAD_REACTORS
330
2A
102
}
102
{ACAD_XDICTIONARY
360
295
102
}
330
2A
100
AcDbVisualStyle
  2
3D Hidden
 70
     6
 71
     1
 72
     2
 73
     2
 90
        0
 40
-0.6
 41
-30.0
 62
     5
 63
     7
 74
     2
 91
        2
 64
     7
 65
   257
 75
     2
175
     1
 42
40.0
 92
        0
 66
   257
 43
1.0
 76
     1
 77
     6
 78
     2
 67
     7
 79
     3
170
     0
171
     0
290
     0
174
     0
 93
        1
 44
0.0
173
     0
291
     0
 45
0.0
1001
ACAD
1000
AcDbSavedByObjectVersion
1070
     0
  0
VISUALSTYLE
  5
30
102
{ACAD_REACTORS
330
2A
102
}
102
{ACAD_XDICTIONARY
360
293
102
}
330
2A
100
AcDbVisualStyle
  2
3dWireframe
 70
     5
 71
     0
 72
     2
 73
     0
 90
        0
 40
-0.6
 41
-30.0
 62
     5
 63
     7
 74
     1
 91
        4
 64
     7
 65
   257
 75
     1
175
     1
 42
1.0
 92
        0
 66
   257
 43
1.0
 76
     1
 77
     6
 78
     2
 67
     7
 79
     5
170
     0
171
     0
290
     0
174
     0
 93
        1
 44
0.0
173
     0
291
     0
 45
0.0
1001
ACAD
1000
AcDbSavedByObjectVersion
1070
     0
  0
VISUALSTYLE
  5
32
102
{ACAD_REACTORS
330
2A
102
}
102
{ACAD_XDICTIONARY
360
297
102
}
330
2A
100
AcDbVisualStyle
  2
Basic
 70
     7
 71
     1
 72
     0
 73
     1
 90
        0
 40
-0.6
 41
-30.0
 62
     5
 63
     7
 74
     0
 91
        4
 64
     7
 65
   257
 75
     1
175
     1
 42
1.0
 92
        8
 66
     7
 43
1.0
 76
     1
 77
     6
 78
     2
 67
     7
 79
     5
170
     0
171
     0
290
     0
174
     0
 93
        1
 44
0.0
173
     0
291
     1
 45
0.0
1001
ACAD
1000
AcDbSavedByObjectVersion
1070
     0
  0
VISUALSTYLE
  5
36
102
{ACAD_REACTORS
330
2A
102
}
102
{ACAD_XDICTIONARY
360
29F
102
}
330
2A
100
AcDbVisualStyle
  2
Brighten
 70
    12
 71
     2
 72
     2
 73
     0
 90
        0
 40
-0.6
 41
-30.0
 62
     5
 63
     7
 74
     1
 91
        4
 64
     7
 65
   257
 75
     1
175
     1
 42
1.0
 92
        8
 66
     7
 43
1.0
 76
     1
 77
     6
 78
     2
 67
     7
 79
     5
170
     0
171
     0
290
     0
174
     0
 93
        1
 44
50.0
173
     0
291
     1
 45
0.0
1001
ACAD
1000
AcDbSavedByObjectVersion
1070
     0
  0
VISUALSTYLE
  5
3A
102
{ACAD_REACTORS
330
2A
102
}
102
{ACAD_XDICTIONARY
360
2A7
102
}
330
2A
100
AcDbVisualStyle
  2
ColorChange
 70
    16
 71
     2
 72
     2
 73
     3
 90
        0
 40
-0.6
 41
-30.0
 62
     5
 63
     8
 74
     1
 91
        4
 64
     7
 65
   257
 75
     1
175
     1
 42
1.0
 92
        8
 66
     8
 43
1.0
 76
     1
 77
     6
 78
     2
 67
     7
 79
     5
170
     0
171
     0
290
     0
174
     0
 93
        1
 44
0.0
173
     0
291
     1
 45
0.0
1001
ACAD
1000
AcDbSavedByObjectVersion
1070
     0
  0
VISUALSTYLE
  5
34
102
{ACAD_REACTORS
330
2A
102
}
102
{ACAD_XDICTIONARY
360
29B
102
}
330
2A
100
AcDbVisualStyle
  2
Conceptual
 70
     9
 71
     3
 72
     2
 73
     0
 90
        0
 40
-0.6
 41
-30.0
 62
     5
 63
     7
 74
     2
 91
        2
 64
     7
 65
   257
 75
     1
175
     1
 42
40.0
 92
        8
 66
     7
 43
1.0
 76
     1
 77
     6
 78
     2
 67
     7
 79
     3
170
     0
171
     0
290
     0
174
     0
 93
        1
 44
0.0
173
     0
291
     0
 45
0.0
1001
ACAD
1000
AcDbSavedByObjectVersion
1070
     0
  0
VISUALSTYLE
  5
35
102
{ACAD_REACTORS
330
2A
102
}
102
{ACAD_XDICTIONARY
360
29D
102
}
330
2A
100
AcDbVisualStyle
  2
Dim
 70
    11
 71
     2
 72
     2
 73
     0
 90
        0
 40
-0.6
 41
-30.0
 62
     5
 63
     7
 74
     1
 91
        4
 64
     7
 65
   257
 75
     1
175
     1
 42
1.0
 92
        8
 66
     7
 43
1.0
 76
     1
 77
     6
 78
     2
 67
     7
 79
     5
170
     0
171
     0
290
     0
174
     0
 93
        1
 44
-50.0
173
     0
291
     1
 45
0.0
1001
ACAD
1000
AcDbSavedByObjectVersion
1070
     0
  0
VISUALSTYLE
  5
39
102
{ACAD_REACTORS
330
2A
102
}
102
{ACAD_XDICTIONARY
360
2A5
102
}
330
2A
100
AcDbVisualStyle
  2
Facepattern
 70
    15
 71
     2
 72
     2
 73
     0
 90
        0
 40
-0.6
 41
-30.0
 62
     5
 63
     7
 74
     1
 91
        4
 64
     7
 65
   257
 75
     1
175
     1
 42
1.0
 92
        8
 66
     7
 43
1.0
 76
     1
 77
     6
 78
     2
 67
     7
 79
     5
170
     0
171
     0
290
     0
174
     0
 93
        1
 44
0.0
173
     0
291
     1
 45
0.0
1001
ACAD
1000
AcDbSavedByObjectVersion
1070
     0
  0
VISUALSTYLE
  5
2B
102
{ACAD_REACTORS
330
2A
102
}
102
{ACAD_XDICTIONARY
360
289
102
}
330
2A
100
AcDbVisualStyle
  2
Flat
 70
     0
 71
     2
 72
     1
 73
     1
 90
        2
 40
-0.6
 41
30.0
 62
     5
 63
     7
 74
     0
 91
        4
 64
     7
 65
   257
 75
     1
175
     1
 42
1.0
 92
        8
 66
     7
 43
1.0
 76
     1
 77
     6
 78
     2
 67
     7
 79
     5
170
     0
171
     0
290
     0
174
     0
 93
       13
 44
0.0
173
     0
291
     1
 45
0.0
1001
ACAD
1000
AcDbSavedByObjectVersion
1070
     0
  0
VISUALSTYLE
  5
2C
102
{ACAD_REACTORS
330
2A
102
}
102
{ACAD_XDICTIONARY
360
28B
102
}
330
2A
100
AcDbVisualStyle
  2
FlatWithEdges
 70
     1
 71
     2
 72
     1
 73
     1
 90
        2
 40
-0.6
 41
30.0
 62
     5
 63
     7
 74
     1
 91
        4
 64
     7
 65
   257
 75
     1
175
     1
 42
1.0
 92
        0
 66
   257
 43
1.0
 76
     1
 77
     6
 78
     2
 67
     7
 79
     5
170
     0
171
     0
290
     0
174
     0
 93
       13
 44
0.0
173
     0
291
     1
 45
0.0
1001
ACAD
1000
AcDbSavedByObjectVersion
1070
     0
  0
VISUALSTYLE
  5
2D
102
{ACAD_REACTORS
330
2A
102
}
102
{ACAD_XDICTIONARY
360
28D
102
}
330
2A
100
AcDbVisualStyle
  2
Gouraud
 70
     2
 71
     2
 72
     2
 73
     1
 90
        2
 40
-0.6
 41
30.0
 62
     5
 63
     7
 74
     0
 91
        4
 64
     7
 65
   257
 75
     1
175
     1
 42
1.0
 92
        0
 66
     7
 43
1.0
 76
     1
 77
     6
 78
     2
 67
     7
 79
     5
170
     0
171
     0
290
     0
174
     0
 93
       13
 44
0.0
173
     0
291
     1
 45
0.0
1001
ACAD
1000
AcDbSavedByObjectVersion
1070
     0
  0
VISUALSTYLE
  5
2E
102
{ACAD_REACTORS
330
2A
102
}
102
{ACAD_XDICTIONARY
360
28F
102
}
330
2A
100
AcDbVisualStyle
  2
GouraudWithEdges
 70
     3
 71
     2
 72
     2
 73
     1
 90
        2
 40
-0.6
 41
30.0
 62
     5
 63
     7
 74
     1
 91
        4
 64
     7
 65
   257
 75
     1
175
     1
 42
1.0
 92
        0
 66
   257
 43
1.0
 76
     1
 77
     6
 78
     2
 67
     7
 79
     5
170
     0
171
     0
290
     0
174
     0
 93
       13
 44
0.0
173
     0
291
     1
 45
0.0
1001
ACAD
1000
AcDbSavedByObjectVersion
1070
     0
  0
VISUALSTYLE
  5
38
102
{ACAD_REACTORS
330
2A
102
}
102
{ACAD_XDICTIONARY
360
2A3
102
}
330
2A
100
AcDbVisualStyle
  2
Linepattern
 70
    14
 71
     2
 72
     2
 73
     0
 90
        0
 40
-0.6
 41
-30.0
 62
     5
 63
     7
 74
     1
 91
        4
 64
     7
 65
   257
 75
     7
175
     7
 42
1.0
 92
        8
 66
     7
 43
1.0
 76
     1
 77
     6
 78
     2
 67
     7
 79
     5
170
     0
171
     0
290
     0
174
     0
 93
        1
 44
0.0
173
     0
291
     1
 45
0.0
1001
ACAD
1000
AcDbSavedByObjectVersion
1070
     0
  0
VISUALSTYLE
  5
33
102
{ACAD_REACTORS
330
2A
102
}
102
{ACAD_XDICTIONARY
360
299
102
}
330
2A
100
AcDbVisualStyle
  2
Realistic
 70
     8
 71
     2
 72
     2
 73
     0
 90
        0
 40
-0.6
 41
-30.0
 62
     5
 63
     7
 74
     1
 91
        0
 64
     7
 65
   257
 75
     1
175
     1
 42
1.0
 92
        8
 66
     8
 43
1.0
 76
     1
 77
     6
 78
     2
 67
     7
 79
     5
170
     0
171
     0
290
     0
174
     0
 93
       13
 44
0.0
173
     0
291
     0
 45
0.0
1001
ACAD
1000
AcDbSavedByObjectVersion
1070
     0
  0
VISUALSTYLE
  5
37
102
{ACAD_REACTORS
330
2A
102
}
102
{ACAD_XDICTIONARY
360
2A1
102
}
330
2A
100
AcDbVisualStyle
  2
Thicken
 70
    13
 71
     2
 72
     2
 73
     0
 90
        0
 40
-0.6
 41
-30.0
 62
     5
 63
     7
 74
     1
 91
        4
 64
     7
 65
   257
 75
     1
175
     1
 42
1.0
 92
       12
 66
     7
 43
1.0
 76
     1
 77
     6
 78
     2
 67
     7
 79
     5
170
     0
171
     0
290
     0
174
     0
 93
        1
 44
0.0
173
     0
291
     1
 45
0.0
1001
ACAD
1000
AcDbSavedByObjectVersion
1070
     0
  0
DICTIONARYVAR
  5
287
102
{ACAD_REACTORS
330
284
102
}
330
284
100
DictionaryVariables
280
     0
  1
2
  0
DICTIONARYVAR
  5
288
102
{ACAD_REACTORS
330
284
102
}
330
284
100
DictionaryVariables
280
     0
  1
1
  0
DICTIONARY
  5
2AB
330
3D
100
AcDbDictionary
280
     1
281
     1
  3
ACAD_XREC_ROUNDTRIP
360
2AC
  0
DICTIONARY
  5
2A9
330
3C
100
AcDbDictionary
280
     1
281
     1
  3
ACAD_XREC_ROUNDTRIP
360
2AA
  0
DICTIONARY
  5
2AD
330
3E
100
AcDbDictionary
280
     1
281
     1
  3
ACAD_XREC_ROUNDTRIP
360
2AE
  0
DICTIONARY
  5
291
330
2F
100
AcDbDictionary
280
     1
281
     1
  3
ACAD_XREC_ROUNDTRIP
360
292
  0
DICTIONARY
  5
295
330
31
100
AcDbDictionary
280
     1
281
     1
  3
ACAD_XREC_ROUNDTRIP
360
296
  0
DICTIONARY
  5
293
330
30
100
AcDbDictionary
280
     1
281
     1
  3
ACAD_XREC_ROUNDTRIP
360
294
  0
DICTIONARY
  5
297
330
32
100
AcDbDictionary
280
     1
281
     1
  3
ACAD_XREC_ROUNDTRIP
360
298
  0
DICTIONARY
  5
29F
330
36
100
AcDbDictionary
280
     1
281
     1
  3
ACAD_XREC_ROUNDTRIP
360
2A0
  0
DICTIONARY
  5
2A7
330
3A
100
AcDbDictionary
280
     1
281
     1
  3
ACAD_XREC_ROUNDTRIP
360
2A8
  0
DICTIONARY
  5
29B
330
34
100
AcDbDictionary
280
     1
281
     1
  3
ACAD_XREC_ROUNDTRIP
360
29C
  0
DICTIONARY
  5
29D
330
35
100
AcDbDictionary
280
     1
281
     1
  3
ACAD_XREC_ROUNDTRIP
360
29E
  0
DICTIONARY
  5
2A5
330
39
100
AcDbDictionary
280
     1
281
     1
  3
ACAD_XREC_ROUNDTRIP
360
2A6
  0
DICTIONARY
  5
289
330
2B
100
AcDbDictionary
280
     1
281
     1
  3
ACAD_XREC_ROUNDTRIP
360
28A
  0
DICTIONARY
  5
28B
330
2C
100
AcDbDictionary
280
     1
281
     1
  3
ACAD_XREC_ROUNDTRIP
360
28C
  0
DICTIONARY
  5
28D
330
2D
100
AcDbDictionary
280
     1
281
     1
  3
ACAD_XREC_ROUNDTRIP
360
28E
  0
DICTIONARY
  5
28F
330
2E
100
AcDbDictionary
280
     1
281
     1
  3
ACAD_XREC_ROUNDTRIP
360
290
  0
DICTIONARY
  5
2A3
330
38
100
AcDbDictionary
280
     1
281
     1
  3
ACAD_XREC_ROUNDTRIP
360
2A4
  0
DICTIONARY
  5
299
330
33
100
AcDbDictionary
280
     1
281
     1
  3
ACAD_XREC_ROUNDTRIP
360
29A
  0
DICTIONARY
  5
2A1
330
37
100
AcDbDictionary
280
     1
281
     1
  3
ACAD_XREC_ROUNDTRIP
360
2A2
  0
XRECORD
  5
2AC
102
{ACAD_REACTORS
330
2AB
102
}
330
2AB
100
AcDbXrecord
280
     1
102
MATERIAL
148
0.0
149
0.0
149
0.0
 93
        0
 94
      127
282
     0
 72
     1
 77
     1
171
     1
175
     1
179
     1
273
     0
  0
XRECORD
  5
2AA
102
{ACAD_REACTORS
330
2A9
102
}
330
2A9
100
AcDbXrecord
280
     1
102
MATERIAL
148
0.0
149
0.0
149
0.0
 93
        0
 94
      127
282
     0
 72
     1
 77
     1
171
     1
175
     1
179
     1
273
     0
  0
XRECORD
  5
2AE
102
{ACAD_REACTORS
330
2AD
102
}
330
2AD
100
AcDbXrecord
280
     1
102
MATERIAL
148
0.0
149
0.0
149
0.0
 93
        0
 94
      127
282
     0
 72
     1
 77
     1
171
     1
175
     1
179
     1
273
     0
  0
XRECORD
  5
292
102
{ACAD_REACTORS
330
291
102
}
330
291
100
AcDbXrecord
280
     1
102
RTVSPropertyOp0
 70
     1
102
RTVSPropertyOp1
 70
     1
102
RTVSPropertyOp2
 70
     1
102
RTVSPropertyOp3
 70
     1
102
RTVSPropertyOp4
 70
     1
102
RTVSPropertyOp5
 70
     1
102
RTVSPropertyOp6
 70
     1
102
RTVSPropertyOp7
 70
     1
102
RTVSPropertyOp8
 70
     1
102
RTVSPropertyOp9
 70
     1
102
RTVSPropertyOp10
 70
     1
102
RTVSPropertyOp11
 70
     1
102
RTVSPropertyOp12
 70
     1
102
RTVSPropertyOp13
 70
     1
102
RTVSPropertyOp14
 70
     1
102
RTVSPropertyOp15
 70
     1
102
RTVSPropertyOp16
 70
     1
102
RTVSPropertyOp17
 70
     1
102
RTVSPropertyOp18
 70
     1
102
RTVSPropertyOp19
 70
     1
102
RTVSPropertyOp20
 70
     1
102
RTVSPropertyOp21
 70
     1
102
RTVSPropertyOp22
 70
     1
102
RTVSPropertyOp23
 70
     1
102
RTVSPropertyOp24
 70
     1
102
RTVSPropertyOp25
 70
     1
102
RTVSPropertyOp26
 70
     1
102
RTVSPropertyOp27
 70
     1
  0
XRECORD
  5
296
102
{ACAD_REACTORS
330
295
102
}
330
295
100
AcDbXrecord
280
     1
102
RTVSPropertyOp0
 70
     1
102
RTVSPropertyOp1
 70
     1
102
RTVSPropertyOp2
 70
     1
102
RTVSPropertyOp3
 70
     1
102
RTVSPropertyOp4
 70
     1
102
RTVSPropertyOp5
 70
     1
102
RTVSPropertyOp6
 70
     1
102
RTVSPropertyOp7
 70
     1
102
RTVSPropertyOp8
 70
     1
102
RTVSPropertyOp9
 70
     1
102
RTVSPropertyOp10
 70
     1
102
RTVSPropertyOp11
 70
     1
102
RTVSPropertyOp12
 70
     1
102
RTVSPropertyOp13
 70
     1
102
RTVSPropertyOp14
 70
     1
102
RTVSPropertyOp15
 70
     1
102
RTVSPropertyOp16
 70
     1
102
RTVSPropertyOp17
 70
     1
102
RTVSPropertyOp18
 70
     1
102
RTVSPropertyOp19
 70
     1
102
RTVSPropertyOp20
 70
     1
102
RTVSPropertyOp21
 70
     1
102
RTVSPropertyOp22
 70
     1
102
RTVSPropertyOp23
 70
     1
102
RTVSPropertyOp24
 70
     1
102
RTVSPropertyOp25
 70
     1
102
RTVSPropertyOp26
 70
     1
102
RTVSPropertyOp27
 70
     1
  0
XRECORD
  5
294
102
{ACAD_REACTORS
330
293
102
}
330
293
100
AcDbXrecord
280
     1
102
RTVSPropertyOp0
 70
     1
102
RTVSPropertyOp1
 70
     1
102
RTVSPropertyOp2
 70
     1
102
RTVSPropertyOp3
 70
     1
102
RTVSPropertyOp4
 70
     1
102
RTVSPropertyOp5
 70
     1
102
RTVSPropertyOp6
 70
     1
102
RTVSPropertyOp7
 70
     1
102
RTVSPropertyOp8
 70
     1
102
RTVSPropertyOp9
 70
     1
102
RTVSPropertyOp10
 70
     1
102
RTVSPropertyOp11
 70
     1
102
RTVSPropertyOp12
 70
     1
102
RTVSPropertyOp13
 70
     1
102
RTVSPropertyOp14
 70
     1
102
RTVSPropertyOp15
 70
     1
102
RTVSPropertyOp16
 70
     1
102
RTVSPropertyOp17
 70
     1
102
RTVSPropertyOp18
 70
     1
102
RTVSPropertyOp19
 70
     1
102
RTVSPropertyOp20
 70
     1
102
RTVSPropertyOp21
 70
     1
102
RTVSPropertyOp22
 70
     1
102
RTVSPropertyOp23
 70
     1
102
RTVSPropertyOp24
 70
     1
102
RTVSPropertyOp25
 70
     1
102
RTVSPropertyOp26
 70
     1
102
RTVSPropertyOp27
 70
     1
  0
XRECORD
  5
298
102
{ACAD_REACTORS
330
297
102
}
330
297
100
AcDbXrecord
280
     1
102
RTVSPropertyOp0
 70
     1
102
RTVSPropertyOp1
 70
     1
102
RTVSPropertyOp2
 70
     1
102
RTVSPropertyOp3
 70
     1
102
RTVSPropertyOp4
 70
     1
102
RTVSPropertyOp5
 70
     1
102
RTVSPropertyOp6
 70
     1
102
RTVSPropertyOp7
 70
     1
102
RTVSPropertyOp8
 70
     1
102
RTVSPropertyOp9
 70
     1
102
RTVSPropertyOp10
 70
     1
102
RTVSPropertyOp11
 70
     1
102
RTVSPropertyOp12
 70
     1
102
RTVSPropertyOp13
 70
     1
102
RTVSPropertyOp14
 70
     1
102
RTVSPropertyOp15
 70
     1
102
RTVSPropertyOp16
 70
     1
102
RTVSPropertyOp17
 70
     1
102
RTVSPropertyOp18
 70
     1
102
RTVSPropertyOp19
 70
     1
102
RTVSPropertyOp20
 70
     1
102
RTVSPropertyOp21
 70
     1
102
RTVSPropertyOp22
 70
     1
102
RTVSPropertyOp23
 70
     1
102
RTVSPropertyOp24
 70
     1
102
RTVSPropertyOp25
 70
     1
102
RTVSPropertyOp26
 70
     1
102
RTVSPropertyOp27
 70
     1
  0
XRECORD
  5
2A0
102
{ACAD_REACTORS
330
29F
102
}
330
29F
100
AcDbXrecord
280
     1
102
RTVSPropertyOp0
 70
     1
102
RTVSPropertyOp1
 70
     1
102
RTVSPropertyOp2
 70
     1
102
RTVSPropertyOp3
 70
     1
102
RTVSPropertyOp4
 70
     1
102
RTVSPropertyOp5
 70
     1
102
RTVSPropertyOp6
 70
     1
102
RTVSPropertyOp7
 70
     1
102
RTVSPropertyOp8
 70
     1
102
RTVSPropertyOp9
 70
     1
102
RTVSPropertyOp10
 70
     1
102
RTVSPropertyOp11
 70
     1
102
RTVSPropertyOp12
 70
     1
102
RTVSPropertyOp13
 70
     1
102
RTVSPropertyOp14
 70
     1
102
RTVSPropertyOp15
 70
     1
102
RTVSPropertyOp16
 70
     1
102
RTVSPropertyOp17
 70
     1
102
RTVSPropertyOp18
 70
     1
102
RTVSPropertyOp19
 70
     1
102
RTVSPropertyOp20
 70
     1
102
RTVSPropertyOp21
 70
     1
102
RTVSPropertyOp22
 70
     1
102
RTVSPropertyOp23
 70
     1
102
RTVSPropertyOp24
 70
     1
102
RTVSPropertyOp25
 70
     1
102
RTVSPropertyOp26
 70
     1
102
RTVSPropertyOp27
 70
     1
  0
XRECORD
  5
2A8
102
{ACAD_REACTORS
330
2A7
102
}
330
2A7
100
AcDbXrecord
280
     1
102
RTVSPropertyOp0
 70
     1
102
RTVSPropertyOp1
 70
     1
102
RTVSPropertyOp2
 70
     1
102
RTVSPropertyOp3
 70
     1
102
RTVSPropertyOp4
 70
     1
102
RTVSPropertyOp5
 70
     1
102
RTVSPropertyOp6
 70
     1
102
RTVSPropertyOp7
 70
     1
102
RTVSPropertyOp8
 70
     1
102
RTVSPropertyOp9
 70
     1
102
RTVSPropertyOp10
 70
     1
102
RTVSPropertyOp11
 70
     1
102
RTVSPropertyOp12
 70
     1
102
RTVSPropertyOp13
 70
     1
102
RTVSPropertyOp14
 70
     1
102
RTVSPropertyOp15
 70
     1
102
RTVSPropertyOp16
 70
     1
102
RTVSPropertyOp17
 70
     1
102
RTVSPropertyOp18
 70
     1
102
RTVSPropertyOp19
 70
     1
102
RTVSPropertyOp20
 70
     1
102
RTVSPropertyOp21
 70
     1
102
RTVSPropertyOp22
 70
     1
102
RTVSPropertyOp23
 70
     1
102
RTVSPropertyOp24
 70
     1
102
RTVSPropertyOp25
 70
     1
102
RTVSPropertyOp26
 70
     1
102
RTVSPropertyOp27
 70
     1
  0
XRECORD
  5
29C
102
{ACAD_REACTORS
330
29B
102
}
330
29B
100
AcDbXrecord
280
     1
102
RTVSPropertyOp0
 70
     1
102
RTVSPropertyOp1
 70
     1
102
RTVSPropertyOp2
 70
     1
102
RTVSPropertyOp3
 70
     1
102
RTVSPropertyOp4
 70
     1
102
RTVSPropertyOp5
 70
     1
102
RTVSPropertyOp6
 70
     1
102
RTVSPropertyOp7
 70
     1
102
RTVSPropertyOp8
 70
     1
102
RTVSPropertyOp9
 70
     1
102
RTVSPropertyOp10
 70
     1
102
RTVSPropertyOp11
 70
     1
102
RTVSPropertyOp12
 70
     1
102
RTVSPropertyOp13
 70
     1
102
RTVSPropertyOp14
 70
     1
102
RTVSPropertyOp15
 70
     1
102
RTVSPropertyOp16
 70
     1
102
RTVSPropertyOp17
 70
     1
102
RTVSPropertyOp18
 70
     1
102
RTVSPropertyOp19
 70
     1
102
RTVSPropertyOp20
 70
     1
102
RTVSPropertyOp21
 70
     1
102
RTVSPropertyOp22
 70
     1
102
RTVSPropertyOp23
 70
     1
102
RTVSPropertyOp24
 70
     1
102
RTVSPropertyOp25
 70
     1
102
RTVSPropertyOp26
 70
     1
102
RTVSPropertyOp27
 70
     1
  0
XRECORD
  5
29E
102
{ACAD_REACTORS
330
29D
102
}
330
29D
100
AcDbXrecord
280
     1
102
RTVSPropertyOp0
 70
     1
102
RTVSPropertyOp1
 70
     1
102
RTVSPropertyOp2
 70
     1
102
RTVSPropertyOp3
 70
     1
102
RTVSPropertyOp4
 70
     1
102
RTVSPropertyOp5
 70
     1
102
RTVSPropertyOp6
 70
     1
102
RTVSPropertyOp7
 70
     1
102
RTVSPropertyOp8
 70
     1
102
RTVSPropertyOp9
 70
     1
102
RTVSPropertyOp10
 70
     1
102
RTVSPropertyOp11
 70
     1
102
RTVSPropertyOp12
 70
     1
102
RTVSPropertyOp13
 70
     1
102
RTVSPropertyOp14
 70
     1
102
RTVSPropertyOp15
 70
     1
102
RTVSPropertyOp16
 70
     1
102
RTVSPropertyOp17
 70
     1
102
RTVSPropertyOp18
 70
     1
102
RTVSPropertyOp19
 70
     1
102
RTVSPropertyOp20
 70
     1
102
RTVSPropertyOp21
 70
     1
102
RTVSPropertyOp22
 70
     1
102
RTVSPropertyOp23
 70
     1
102
RTVSPropertyOp24
 70
     1
102
RTVSPropertyOp25
 70
     1
102
RTVSPropertyOp26
 70
     1
102
RTVSPropertyOp27
 70
     1
  0
XRECORD
  5
2A6
102
{ACAD_REACTORS
330
2A5
102
}
330
2A5
100
AcDbXrecord
280
     1
102
RTVSPropertyOp0
 70
     1
102
RTVSPropertyOp1
 70
     1
102
RTVSPropertyOp2
 70
     1
102
RTVSPropertyOp3
 70
     1
102
RTVSPropertyOp4
 70
     1
102
RTVSPropertyOp5
 70
     1
102
RTVSPropertyOp6
 70
     1
102
RTVSPropertyOp7
 70
     1
102
RTVSPropertyOp8
 70
     1
102
RTVSPropertyOp9
 70
     1
102
RTVSPropertyOp10
 70
     1
102
RTVSPropertyOp11
 70
     1
102
RTVSPropertyOp12
 70
     1
102
RTVSPropertyOp13
 70
     1
102
RTVSPropertyOp14
 70
     1
102
RTVSPropertyOp15
 70
     1
102
RTVSPropertyOp16
 70
     1
102
RTVSPropertyOp17
 70
     1
102
RTVSPropertyOp18
 70
     1
102
RTVSPropertyOp19
 70
     1
102
RTVSPropertyOp20
 70
     1
102
RTVSPropertyOp21
 70
     1
102
RTVSPropertyOp22
 70
     1
102
RTVSPropertyOp23
 70
     1
102
RTVSPropertyOp24
 70
     1
102
RTVSPropertyOp25
 70
     1
102
RTVSPropertyOp26
 70
     1
102
RTVSPropertyOp27
 70
     1
  0
XRECORD
  5
28A
102
{ACAD_REACTORS
330
289
102
}
330
289
100
AcDbXrecord
280
     1
102
RTVSPropertyOp0
 70
     1
102
RTVSPropertyOp1
 70
     1
102
RTVSPropertyOp2
 70
     1
102
RTVSPropertyOp3
 70
     1
102
RTVSPropertyOp4
 70
     1
102
RTVSPropertyOp5
 70
     1
102
RTVSPropertyOp6
 70
     1
102
RTVSPropertyOp7
 70
     1
102
RTVSPropertyOp8
 70
     1
102
RTVSPropertyOp9
 70
     1
102
RTVSPropertyOp10
 70
     1
102
RTVSPropertyOp11
 70
     1
102
RTVSPropertyOp12
 70
     1
102
RTVSPropertyOp13
 70
     1
102
RTVSPropertyOp14
 70
     1
102
RTVSPropertyOp15
 70
     1
102
RTVSPropertyOp16
 70
     1
102
RTVSPropertyOp17
 70
     1
102
RTVSPropertyOp18
 70
     1
102
RTVSPropertyOp19
 70
     1
102
RTVSPropertyOp20
 70
     1
102
RTVSPropertyOp21
 70
     1
102
RTVSPropertyOp22
 70
     1
102
RTVSPropertyOp23
 70
     1
102
RTVSPropertyOp24
 70
     1
102
RTVSPropertyOp25
 70
     1
102
RTVSPropertyOp26
 70
     1
102
RTVSPropertyOp27
 70
     1
  0
XRECORD
  5
28C
102
{ACAD_REACTORS
330
28B
102
}
330
28B
100
AcDbXrecord
280
     1
102
RTVSPropertyOp0
 70
     1
102
RTVSPropertyOp1
 70
     1
102
RTVSPropertyOp2
 70
     1
102
RTVSPropertyOp3
 70
     1
102
RTVSPropertyOp4
 70
     1
102
RTVSPropertyOp5
 70
     1
102
RTVSPropertyOp6
 70
     1
102
RTVSPropertyOp7
 70
     1
102
RTVSPropertyOp8
 70
     1
102
RTVSPropertyOp9
 70
     1
102
RTVSPropertyOp10
 70
     1
102
RTVSPropertyOp11
 70
     1
102
RTVSPropertyOp12
 70
     1
102
RTVSPropertyOp13
 70
     1
102
RTVSPropertyOp14
 70
     1
102
RTVSPropertyOp15
 70
     1
102
RTVSPropertyOp16
 70
     1
102
RTVSPropertyOp17
 70
     1
102
RTVSPropertyOp18
 70
     1
102
RTVSPropertyOp19
 70
     1
102
RTVSPropertyOp20
 70
     1
102
RTVSPropertyOp21
 70
     1
102
RTVSPropertyOp22
 70
     1
102
RTVSPropertyOp23
 70
     1
102
RTVSPropertyOp24
 70
     1
102
RTVSPropertyOp25
 70
     1
102
RTVSPropertyOp26
 70
     1
102
RTVSPropertyOp27
 70
     1
  0
XRECORD
  5
28E
102
{ACAD_REACTORS
330
28D
102
}
330
28D
100
AcDbXrecord
280
     1
102
RTVSPropertyOp0
 70
     1
102
RTVSPropertyOp1
 70
     1
102
RTVSPropertyOp2
 70
     1
102
RTVSPropertyOp3
 70
     1
102
RTVSPropertyOp4
 70
     1
102
RTVSPropertyOp5
 70
     1
102
RTVSPropertyOp6
 70
     1
102
RTVSPropertyOp7
 70
     1
102
RTVSPropertyOp8
 70
     1
102
RTVSPropertyOp9
 70
     1
102
RTVSPropertyOp10
 70
     1
102
RTVSPropertyOp11
 70
     1
102
RTVSPropertyOp12
 70
     1
102
RTVSPropertyOp13
 70
     1
102
RTVSPropertyOp14
 70
     1
102
RTVSPropertyOp15
 70
     1
102
RTVSPropertyOp16
 70
     1
102
RTVSPropertyOp17
 70
     1
102
RTVSPropertyOp18
 70
     1
102
RTVSPropertyOp19
 70
     1
102
RTVSPropertyOp20
 70
     1
102
RTVSPropertyOp21
 70
     1
102
RTVSPropertyOp22
 70
     1
102
RTVSPropertyOp23
 70
     1
102
RTVSPropertyOp24
 70
     1
102
RTVSPropertyOp25
 70
     1
102
RTVSPropertyOp26
 70
     1
102
RTVSPropertyOp27
 70
     1
  0
XRECORD
  5
290
102
{ACAD_REACTORS
330
28F
102
}
330
28F
100
AcDbXrecord
280
     1
102
RTVSPropertyOp0
 70
     1
102
RTVSPropertyOp1
 70
     1
102
RTVSPropertyOp2
 70
     1
102
RTVSPropertyOp3
 70
     1
102
RTVSPropertyOp4
 70
     1
102
RTVSPropertyOp5
 70
     1
102
RTVSPropertyOp6
 70
     1
102
RTVSPropertyOp7
 70
     1
102
RTVSPropertyOp8
 70
     1
102
RTVSPropertyOp9
 70
     1
102
RTVSPropertyOp10
 70
     1
102
RTVSPropertyOp11
 70
     1
102
RTVSPropertyOp12
 70
     1
102
RTVSPropertyOp13
 70
     1
102
RTVSPropertyOp14
 70
     1
102
RTVSPropertyOp15
 70
     1
102
RTVSPropertyOp16
 70
     1
102
RTVSPropertyOp17
 70
     1
102
RTVSPropertyOp18
 70
     1
102
RTVSPropertyOp19
 70
     1
102
RTVSPropertyOp20
 70
     1
102
RTVSPropertyOp21
 70
     1
102
RTVSPropertyOp22
 70
     1
102
RTVSPropertyOp23
 70
     1
102
RTVSPropertyOp24
 70
     1
102
RTVSPropertyOp25
 70
     1
102
RTVSPropertyOp26
 70
     1
102
RTVSPropertyOp27
 70
     1
  0
XRECORD
  5
2A4
102
{ACAD_REACTORS
330
2A3
102
}
330
2A3
100
AcDbXrecord
280
     1
102
RTVSPropertyOp0
 70
     1
102
RTVSPropertyOp1
 70
     1
102
RTVSPropertyOp2
 70
     1
102
RTVSPropertyOp3
 70
     1
102
RTVSPropertyOp4
 70
     1
102
RTVSPropertyOp5
 70
     1
102
RTVSPropertyOp6
 70
     1
102
RTVSPropertyOp7
 70
     1
102
RTVSPropertyOp8
 70
     1
102
RTVSPropertyOp9
 70
     1
102
RTVSPropertyOp10
 70
     1
102
RTVSPropertyOp11
 70
     1
102
RTVSPropertyOp12
 70
     1
102
RTVSPropertyOp13
 70
     1
102
RTVSPropertyOp14
 70
     1
102
RTVSPropertyOp15
 70
     1
102
RTVSPropertyOp16
 70
     1
102
RTVSPropertyOp17
 70
     1
102
RTVSPropertyOp18
 70
     1
102
RTVSPropertyOp19
 70
     1
102
RTVSPropertyOp20
 70
     1
102
RTVSPropertyOp21
 70
     1
102
RTVSPropertyOp22
 70
     1
102
RTVSPropertyOp23
 70
     1
102
RTVSPropertyOp24
 70
     1
102
RTVSPropertyOp25
 70
     1
102
RTVSPropertyOp26
 70
     1
102
RTVSPropertyOp27
 70
     1
  0
XRECORD
  5
29A
102
{ACAD_REACTORS
330
299
102
}
330
299
100
AcDbXrecord
280
     1
102
RTVSPropertyOp0
 70
     1
102
RTVSPropertyOp1
 70
     1
102
RTVSPropertyOp2
 70
     1
102
RTVSPropertyOp3
 70
     1
102
RTVSPropertyOp4
 70
     1
102
RTVSPropertyOp5
 70
     1
102
RTVSPropertyOp6
 70
     1
102
RTVSPropertyOp7
 70
     1
102
RTVSPropertyOp8
 70
     1
102
RTVSPropertyOp9
 70
     1
102
RTVSPropertyOp10
 70
     1
102
RTVSPropertyOp11
 70
     1
102
RTVSPropertyOp12
 70
     1
102
RTVSPropertyOp13
 70
     1
102
RTVSPropertyOp14
 70
     1
102
RTVSPropertyOp15
 70
     1
102
RTVSPropertyOp16
 70
     1
102
RTVSPropertyOp17
 70
     1
102
RTVSPropertyOp18
 70
     1
102
RTVSPropertyOp19
 70
     1
102
RTVSPropertyOp20
 70
     1
102
RTVSPropertyOp21
 70
     1
102
RTVSPropertyOp22
 70
     1
102
RTVSPropertyOp23
 70
     1
102
RTVSPropertyOp24
 70
     1
102
RTVSPropertyOp25
 70
     1
102
RTVSPropertyOp26
 70
     1
102
RTVSPropertyOp27
 70
     1
  0
XRECORD
  5
2A2
102
{ACAD_REACTORS
330
2A1
102
}
330
2A1
100
AcDbXrecord
280
     1
102
RTVSPropertyOp0
 70
     1
102
RTVSPropertyOp1
 70
     1
102
RTVSPropertyOp2
 70
     1
102
RTVSPropertyOp3
 70
     1
102
RTVSPropertyOp4
 70
     1
102
RTVSPropertyOp5
 70
     1
102
RTVSPropertyOp6
 70
     1
102
RTVSPropertyOp7
 70
     1
102
RTVSPropertyOp8
 70
     1
102
RTVSPropertyOp9
 70
     1
102
RTVSPropertyOp10
 70
     1
102
RTVSPropertyOp11
 70
     1
102
RTVSPropertyOp12
 70
     1
102
RTVSPropertyOp13
 70
     1
102
RTVSPropertyOp14
 70
     1
102
RTVSPropertyOp15
 70
     1
102
RTVSPropertyOp16
 70
     1
102
RTVSPropertyOp17
 70
     1
102
RTVSPropertyOp18
 70
     1
102
RTVSPropertyOp19
 70
     1
102
RTVSPropertyOp20
 70
     1
102
RTVSPropertyOp21
 70
     1
102
RTVSPropertyOp22
 70
     1
102
RTVSPropertyOp23
 70
     1
102
RTVSPropertyOp24
 70
     1
102
RTVSPropertyOp25
 70
     1
102
RTVSPropertyOp26
 70
     1
102
RTVSPropertyOp27
 70
     1
  0
ENDSEC
  0
EOF
