  0
SECTION
  2
HEADER
  9
$ACADVER
  1
AC1015
  9
$ACADMAINTVER
 70
     6
  9
$DWGCODEPAGE
  3
ANSI_932
  9
$INSBASE
 10
0.0
 20
0.0
 30
0.0
  9
$EXTMIN
 10
74.74711668178259
 20
154.0
 30
0.0
  9
$EXTMAX
 10
317.9999873064534
 20
566.0
 30
0.0
  9
$LIMMIN
 10
0.0
 20
0.0
  9
$LIMMAX
 10
12.0
 20
9.0
  9
$ORTHOMODE
 70
     0
  9
$REGENMODE
 70
     1
  9
$FILLMODE
 70
     1
  9
$QTEXTMODE
 70
     0
  9
$MIRRTEXT
 70
     1
  9
$LTSCALE
 40
1.0
  9
$ATTMODE
 70
     1
  9
$TEXTSIZE
 40
0.2
  9
$TRACEWID
 40
0.05
  9
$TEXTSTYLE
  7
Standard
  9
$CLAYER
  8
0
  9
$CELTYPE
  6
ByLayer
  9
$CECOLOR
 62
   256
  9
$CELTSCALE
 40
1.0
  9
$DISPSILH
 70
     0
  9
$DIMSCALE
 40
1.0
  9
$DIMASZ
 40
0.18
  9
$DIMEXO
 40
0.0625
  9
$DIMDLI
 40
0.38
  9
$DIMRND
 40
0.0
  9
$DIMDLE
 40
0.0
  9
$DIMEXE
 40
0.18
  9
$DIMTP
 40
0.0
  9
$DIMTM
 40
0.0
  9
$DIMTXT
 40
0.18
  9
$DIMCEN
 40
0.09
  9
$DIMTSZ
 40
0.0
  9
$DIMTOL
 70
     0
  9
$DIMLIM
 70
     0
  9
$DIMTIH
 70
     1
  9
$DIMTOH
 70
     1
  9
$DIMSE1
 70
     0
  9
$DIMSE2
 70
     0
  9
$DIMTAD
 70
     0
  9
$DIMZIN
 70
     0
  9
$DIMBLK
  1

  9
$DIMASO
 70
     1
  9
$DIMSHO
 70
     1
  9
$DIMPOST
  1

  9
$DIMAPOST
  1

  9
$DIMALT
 70
     0
  9
$DIMALTD
 70
     2
  9
$DIMALTF
 40
25.4
  9
$DIMLFAC
 40
1.0
  9
$DIMTOFL
 70
     0
  9
$DIMTVP
 40
0.0
  9
$DIMTIX
 70
     0
  9
$DIMSOXD
 70
     0
  9
$DIMSAH
 70
     0
  9
$DIMBLK1
  1

  9
$DIMBLK2
  1

  9
$DIMSTYLE
  2
Standard
  9
$DIMCLRD
 70
     0
  9
$DIMCLRE
 70
     0
  9
$DIMCLRT
 70
     0
  9
$DIMTFAC
 40
1.0
  9
$DIMGAP
 40
0.09
  9
$DIMJUST
 70
     0
  9
$DIMSD1
 70
     0
  9
$DIMSD2
 70
     0
  9
$DIMTOLJ
 70
     1
  9
$DIMTZIN
 70
     0
  9
$DIMALTZ
 70
     0
  9
$DIMALTTZ
 70
     0
  9
$DIMUPT
 70
     0
  9
$DIMDEC
 70
     4
  9
$DIMTDEC
 70
     4
  9
$DIMALTU
 70
     2
  9
$DIMALTTD
 70
     2
  9
$DIMTXSTY
  7
Standard
  9
$DIMAUNIT
 70
     0
  9
$DIMADEC
 70
     0
  9
$DIMALTRND
 40
0.0
  9
$DIMAZIN
 70
     0
  9
$DIMDSEP
 70
    46
  9
$DIMATFIT
 70
     3
  9
$DIMFRAC
 70
     0
  9
$DIMLDRBLK
  1

  9
$DIMLUNIT
 70
     2
  9
$DIMLWD
 70
    -2
  9
$DIMLWE
 70
    -2
  9
$DIMTMOVE
 70
     0
  9
$LUNITS
 70
     2
  9
$LUPREC
 70
     4
  9
$SKETCHINC
 40
0.1
  9
$FILLETRAD
 40
0.5
  9
$AUNITS
 70
     0
  9
$AUPREC
 70
     0
  9
$MENU
  1
.
  9
$ELEVATION
 40
0.0
  9
$PELEVATION
 40
0.0
  9
$THICKNESS
 40
0.0
  9
$LIMCHECK
 70
     0
  9
$CHAMFERA
 40
0.5
  9
$CHAMFERB
 40
0.5
  9
$CHAMFERC
 40
1.0
  9
$CHAMFERD
 40
0.0
  9
$SKPOLY
 70
     0
  9
$TDCREATE
 40
2458527.325172361
  9
$TDUCREATE
 40
2458526.950172361
  9
$TDUPDATE
 40
2458527.325172373
  9
$TDUUPDATE
 40
2458526.950172373
  9
$TDINDWG
 40
0.0000000116
  9
$TDUSRTIMER
 40
0.0000000116
  9
$USRTIMER
 70
     1
  9
$ANGBASE
 50
0.0
  9
$ANGDIR
 70
     0
  9
$PDMODE
 70
     0
  9
$PDSIZE
 40
0.0
  9
$PLINEWID
 40
0.0
  9
$SPLFRAME
 70
     0
  9
$SPLINETYPE
 70
     6
  9
$SPLINESEGS
 70
     8
  9
$HANDSEED
  5
4EB
  9
$SURFTAB1
 70
     6
  9
$SURFTAB2
 70
     6
  9
$SURFTYPE
 70
     6
  9
$SURFU
 70
     6
  9
$SURFV
 70
     6
  9
$UCSBASE
  2

  9
$UCSNAME
  2

  9
$UCSORG
 10
0.0
 20
0.0
 30
0.0
  9
$UCSXDIR
 10
1.0
 20
0.0
 30
0.0
  9
$UCSYDIR
 10
0.0
 20
1.0
 30
0.0
  9
$UCSORTHOREF
  2

  9
$UCSORTHOVIEW
 70
     0
  9
$UCSORGTOP
 10
0.0
 20
0.0
 30
0.0
  9
$UCSORGBOTTOM
 10
0.0
 20
0.0
 30
0.0
  9
$UCSORGLEFT
 10
0.0
 20
0.0
 30
0.0
  9
$UCSORGRIGHT
 10
0.0
 20
0.0
 30
0.0
  9
$UCSORGFRONT
 10
0.0
 20
0.0
 30
0.0
  9
$UCSORGBACK
 10
0.0
 20
0.0
 30
0.0
  9
$PUCSBASE
  2

  9
$PUCSNAME
  2

  9
$PUCSORG
 10
0.0
 20
0.0
 30
0.0
  9
$PUCSXDIR
 10
1.0
 20
0.0
 30
0.0
  9
$PUCSYDIR
 10
0.0
 20
1.0
 30
0.0
  9
$PUCSORTHOREF
  2

  9
$PUCSORTHOVIEW
 70
     0
  9
$PUCSORGTOP
 10
0.0
 20
0.0
 30
0.0
  9
$PUCSORGBOTTOM
 10
0.0
 20
0.0
 30
0.0
  9
$PUCSORGLEFT
 10
0.0
 20
0.0
 30
0.0
  9
$PUCSORGRIGHT
 10
0.0
 20
0.0
 30
0.0
  9
$PUCSORGFRONT
 10
0.0
 20
0.0
 30
0.0
  9
$PUCSORGBACK
 10
0.0
 20
0.0
 30
0.0
  9
$USERI1
 70
     0
  9
$USERI2
 70
     0
  9
$USERI3
 70
     0
  9
$USERI4
 70
     0
  9
$USERI5
 70
     0
  9
$USERR1
 40
18.0
  9
$USERR2
 40
0.0
  9
$USERR3
 40
0.0
  9
$USERR4
 40
0.0
  9
$USERR5
 40
0.0
  9
$WORLDVIEW
 70
     1
  9
$SHADEDGE
 70
     3
  9
$SHADEDIF
 70
    70
  9
$TILEMODE
 70
     1
  9
$MAXACTVP
 70
    64
  9
$PINSBASE
 10
0.0
 20
0.0
 30
0.0
  9
$PLIMCHECK
 70
     0
  9
$PEXTMIN
 10
1.00000000000000E+20
 20
1.00000000000000E+20
 30
1.00000000000000E+20
  9
$PEXTMAX
 10
-1.00000000000000E+20
 20
-1.00000000000000E+20
 30
-1.00000000000000E+20
  9
$PLIMMIN
 10
0.0
 20
0.0
  9
$PLIMMAX
 10
12.0
 20
9.0
  9
$UNITMODE
 70
     0
  9
$VISRETAIN
 70
     1
  9
$PLINEGEN
 70
     0
  9
$PSLTSCALE
 70
     1
  9
$TREEDEPTH
 70
  3020
  9
$CMLSTYLE
  2
Standard
  9
$CMLJUST
 70
     0
  9
$CMLSCALE
 40
1.0
  9
$PROXYGRAPHICS
 70
     1
  9
$MEASUREMENT
 70
     1
  9
$CELWEIGHT
370
    -1
  9
$ENDCAPS
280
     0
  9
$JOINSTYLE
280
     0
  9
$LWDISPLAY
290
     0
  9
$INSUNITS
 70
     1
  9
$HYPERLINKBASE
  1

  9
$STYLESHEET
  1

  9
$XEDIT
290
     1
  9
$CEPSNTYPE
380
     0
  9
$PSTYLEMODE
290
     1
  9
$FINGERPRINTGUID
  2
{69E7F944-9A3D-4391-AC3F-73F72B156722}
  9
$VERSIONGUID
  2
{FAEB1C32-E019-11D5-929B-00C0DF256EC4}
  9
$EXTNAMES
290
     1
  9
$PSVPSCALE
 40
0.0
  9
$OLESTARTUP
290
     0
  0
ENDSEC
  0
SECTION
  2
CLASSES
  0
CLASS
  1
ACDBDICTIONARYWDFLT
  2
AcDbDictionaryWithDefault
  3
ObjectDBX Classes
 90
        0
280
     0
281
     0
  0
CLASS
  1
VISUALSTYLE
  2
AcDbVisualStyle
  3
ObjectDBX Classes
 90
     4095
280
     0
281
     0
  0
CLASS
  1
MATERIAL
  2
AcDbMaterial
  3
ObjectDBX Classes
 90
     1153
280
     0
281
     0
  0
CLASS
  1

  2
exOdDbCircle
  3

 90
        0
280
     0
281
     1
  0
CLASS
  1

  2
exOdDbSpline
  3

 90
        0
280
     0
281
     1
  0
CLASS
  1

  2
exOdDbPolyline
  3

 90
        0
280
     0
281
     1
  0
CLASS
  1
DICTIONARYVAR
  2
AcDbDictionaryVar
  3
ObjectDBX Classes
 90
        0
280
     0
281
     0
  0
CLASS
  1
ACDBPLACEHOLDER
  2
AcDbPlaceHolder
  3
ObjectDBX Classes
 90
        0
280
     0
281
     0
  0
CLASS
  1
LAYOUT
  2
AcDbLayout
  3
ObjectDBX Classes
 90
        0
280
     0
281
     0
  0
ENDSEC
  0
SECTION
  2
TABLES
  0
TABLE
  2
VPORT
  5
8
330
0
100
AcDbSymbolTable
 70
     1
  0
VPORT
  5
29
330
8
100
AcDbSymbolTableRecord
100
AcDbViewportTableRecord
  2
*Active
 70
     0
 10
0.0
 20
0.0
 11
1.0
 21
1.0
 12
196.373551994118
 22
360.0
 13
0.0
 23
0.0
 14
0.5
 24
0.5
 15
0.5
 25
0.5
 16
0.0
 26
0.0
 36
1.0
 17
0.0
 27
0.0
 37
0.0
 40
453.2
 41
1.60267857142857
 42
50.0
 43
0.0
 44
0.0
 50
0.0
 51
0.0
 71
     0
 72
   100
 73
     1
 74
     3
 75
     0
 76
     0
 77
     0
 78
     0
281
     0
 65
     1
110
0.0
120
0.0
130
0.0
111
1.0
121
0.0
131
0.0
112
0.0
122
1.0
132
0.0
 79
     0
146
0.0
  0
ENDTAB
  0
TABLE
  2
LTYPE
  5
5
330
0
100
AcDbSymbolTable
 70
     9
  0
LTYPE
  5
14
330
5
100
AcDbSymbolTableRecord
100
AcDbLinetypeTableRecord
  2
ByBlock
 70
     0
  3

 72
    65
 73
     0
 40
0.0
  0
LTYPE
  5
15
330
5
100
AcDbSymbolTableRecord
100
AcDbLinetypeTableRecord
  2
ByLayer
 70
     0
  3

 72
    65
 73
     0
 40
0.0
  0
LTYPE
  5
16
330
5
100
AcDbSymbolTableRecord
100
AcDbLinetypeTableRecord
  2
Continuous
 70
     0
  3
Solid line
 72
    65
 73
     0
 40
0.0
  0
LTYPE
  5
3F
330
5
100
AcDbSymbolTableRecord
100
AcDbLinetypeTableRecord
  2
DASHED
 70
     0
  3
Dashed
 72
    65
 73
     2
 40
15.0
 49
7.0
 74
     0
 49
-8.0
 74
     0
  0
LTYPE
  5
40
330
5
100
AcDbSymbolTableRecord
100
AcDbLinetypeTableRecord
  2
DOTTED
 70
     0
  3
Dotted
 72
    65
 73
     2
 40
1.0
 49
0.0
 74
     0
 49
-1.0
 74
     0
  0
LTYPE
  5
41
330
5
100
AcDbSymbolTableRecord
100
AcDbLinetypeTableRecord
  2
DOT_CENTER
 70
     0
  3
Dot_Center
 72
    65
 73
     4
 40
14.0
 49
12.0
 74
     0
 49
-1.0
 74
     0
 49
0.0
 74
     0
 49
-1.0
 74
     0
  0
LTYPE
  5
42
330
5
100
AcDbSymbolTableRecord
100
AcDbLinetypeTableRecord
  2
LONG_DASHED
 70
     0
  3
Long_Dashed
 72
    65
 73
     2
 40
15.0
 49
10.0
 74
     0
 49
-5.0
 74
     0
  0
LTYPE
  5
43
330
5
100
AcDbSymbolTableRecord
100
AcDbLinetypeTableRecord
  2
DASH_CENTER
 70
     0
  3
Dash_Center
 72
    65
 73
     4
 40
14.0
 49
11.0
 74
     0
 49
-1.0
 74
     0
 49
1.0
 74
     0
 49
-1.0
 74
     0
  0
LTYPE
  5
44
330
5
100
AcDbSymbolTableRecord
100
AcDbLinetypeTableRecord
  2
PHANTOM
 70
     0
  3
Phantom
 72
    65
 73
     6
 40
13.0
 49
10.0
 74
     0
 49
-1.0
 74
     0
 49
0.0
 74
     0
 49
-1.0
 74
     0
 49
0.0
 74
     0
 49
-1.0
 74
     0
  0
LTYPE
  5
45
330
5
100
AcDbSymbolTableRecord
100
AcDbLinetypeTableRecord
  2
CENTER_DASH_DASH
 70
     0
  3
Center_Dash_Dash
 72
    65
 73
     6
 40
14.0
 49
9.0
 74
     0
 49
-1.0
 74
     0
 49
1.0
 74
     0
 49
-1.0
 74
     0
 49
1.0
 74
     0
 49
-1.0
 74
     0
  0
LTYPE
  5
46
330
5
100
AcDbSymbolTableRecord
100
AcDbLinetypeTableRecord
  2
CENTER
 70
     0
  3
CENTER
 72
    65
 73
     4
 40
6.0
 49
3.0
 74
     0
 49
-1.0
 74
     0
 49
1.0
 74
     0
 49
-1.0
 74
     0
  0
ENDTAB
  0
TABLE
  2
LAYER
  5
2
330
0
100
AcDbSymbolTable
 70
     5
  0
LAYER
  5
10
330
2
100
AcDbSymbolTableRecord
100
AcDbLayerTableRecord
  2
0
 70
     0
 62
     7
  6
Continuous
370
    -3
390
F
  0
LAYER
  5
47
330
2
100
AcDbSymbolTableRecord
100
AcDbLayerTableRecord
  2
1
 70
     0
 62
     7
  6
Continuous
370
    -3
390
F
  0
LAYER
  5
48
330
2
100
AcDbSymbolTableRecord
100
AcDbLayerTableRecord
  2
2
 70
     0
 62
     7
  6
Continuous
370
    -3
390
F
  0
LAYER
  5
49
330
2
100
AcDbSymbolTableRecord
100
AcDbLayerTableRecord
  2
3
 70
     0
 62
     7
  6
Continuous
370
    -3
390
F
  0
LAYER
  5
4A
330
2
100
AcDbSymbolTableRecord
100
AcDbLayerTableRecord
  2
5
 70
     0
 62
     7
  6
Continuous
370
    -3
390
F
  0
ENDTAB
  0
TABLE
  2
STYLE
  5
3
330
0
100
AcDbSymbolTable
 70
     1
  0
STYLE
  5
11
330
3
100
AcDbSymbolTableRecord
100
AcDbTextStyleTableRecord
  2
Standard
 70
     0
 40
0.0
 41
1.0
 50
0.0
 71
     0
 42
0.2
  3
txt
  4

  0
ENDTAB
  0
TABLE
  2
VIEW
  5
6
330
0
100
AcDbSymbolTable
 70
     0
  0
ENDTAB
  0
TABLE
  2
UCS
  5
7
330
0
100
AcDbSymbolTable
 70
     0
  0
ENDTAB
  0
TABLE
  2
APPID
  5
9
330
0
100
AcDbSymbolTable
 70
     1
  0
APPID
  5
12
330
9
100
AcDbSymbolTableRecord
100
AcDbRegAppTableRecord
  2
ACAD
 70
     0
  0
ENDTAB
  0
TABLE
  2
DIMSTYLE
  5
A
330
0
100
AcDbSymbolTable
 70
     1
100
AcDbDimStyleTable
  0
DIMSTYLE
105
27
330
A
100
AcDbSymbolTableRecord
100
AcDbDimStyleTableRecord
  2
Standard
 70
     0
340
11
  0
ENDTAB
  0
TABLE
  2
BLOCK_RECORD
  5
1
330
0
100
AcDbSymbolTable
 70
     1
  0
BLOCK_RECORD
  5
1F
330
1
100
AcDbSymbolTableRecord
100
AcDbBlockTableRecord
  2
*Model_Space
340
22
  0
BLOCK_RECORD
  5
1B
330
1
100
AcDbSymbolTableRecord
100
AcDbBlockTableRecord
  2
*Paper_Space
340
1E
  0
BLOCK_RECORD
  5
23
330
1
100
AcDbSymbolTableRecord
100
AcDbBlockTableRecord
  2
*Paper_Space0
340
26
  0
ENDTAB
  0
ENDSEC
  0
SECTION
  2
BLOCKS
  0
BLOCK
  5
20
330
1F
100
AcDbEntity
  8
0
100
AcDbBlockBegin
  2
*Model_Space
 70
     0
 10
0.0
 20
0.0
 30
0.0
  3
*Model_Space
  1

  0
ENDBLK
  5
21
330
1F
100
AcDbEntity
  8
0
100
AcDbBlockEnd
  0
BLOCK
  5
1C
330
1B
100
AcDbEntity
 67
     1
  8
0
100
AcDbBlockBegin
  2
*Paper_Space
 70
     0
 10
0.0
 20
0.0
 30
0.0
  3
*Paper_Space
  1

  0
ENDBLK
  5
1D
330
1B
100
AcDbEntity
 67
     1
  8
0
100
AcDbBlockEnd
  0
BLOCK
  5
24
330
23
100
AcDbEntity
  8
0
100
AcDbBlockBegin
  2
*Paper_Space0
 70
     0
 10
0.0
 20
0.0
 30
0.0
  3
*Paper_Space0
  1

  0
ENDBLK
  5
25
330
23
100
AcDbEntity
  8
0
100
AcDbBlockEnd
  0
ENDSEC
  0
SECTION
  2
ENTITIES
  0
LINE
  5
4B
330
1F
100
AcDbEntity
  8
1
  6
Continuous
 62
     4
100
AcDbLine
 10
88.11124956873655
 20
325.9946800169282
 30
0.0
 11
90.05242603932479
 21
325.9946800169282
 31
0.0
  0
LINE
  5
4C
330
1F
100
AcDbEntity
  8
1
  6
Continuous
 62
     4
100
AcDbLine
 10
88.28772015697184
 20
326.4946800169282
 30
0.0
 11
88.11124956873655
 21
325.9946800169282
 31
0.0
  0
LINE
  5
4D
330
1F
100
AcDbEntity
  8
1
  6
Continuous
 62
     4
100
AcDbLine
 10
88.46419074520715
 20
326.7946800169282
 30
0.0
 11
88.28772015697184
 21
326.4946800169282
 31
0.0
  0
LINE
  5
4E
330
1F
100
AcDbEntity
  8
1
  6
Continuous
 62
     4
100
AcDbLine
 10
88.81713192167773
 20
327.0946800169282
 30
0.0
 11
88.46419074520715
 21
326.7946800169282
 31
0.0
  0
LINE
  5
4F
330
1F
100
AcDbEntity
  8
1
  6
Continuous
 62
     4
100
AcDbLine
 10
89.17007309814832
 20
327.2946800169282
 30
0.0
 11
88.81713192167773
 21
327.0946800169282
 31
0.0
  0
LINE
  5
50
330
1F
100
AcDbEntity
  8
1
  6
Continuous
 62
     4
100
AcDbLine
 10
89.61124956873655
 20
327.5946800169282
 30
0.0
 11
89.17007309814832
 21
327.2946800169282
 31
0.0
  0
LINE
  5
51
330
1F
100
AcDbEntity
  8
1
  6
Continuous
 62
     4
100
AcDbLine
 10
89.8759554510895
 20
327.9946800169282
 30
0.0
 11
89.61124956873655
 21
327.5946800169282
 31
0.0
  0
LINE
  5
52
330
1F
100
AcDbEntity
  8
1
  6
Continuous
 62
     4
100
AcDbLine
 10
89.96419074520715
 20
328.3946800169282
 30
0.0
 11
89.8759554510895
 21
327.9946800169282
 31
0.0
  0
LINE
  5
53
330
1F
100
AcDbEntity
  8
1
  6
Continuous
 62
     4
100
AcDbLine
 10
89.61124956873655
 20
328.7946800169282
 30
0.0
 11
89.96419074520715
 21
328.3946800169282
 31
0.0
  0
LINE
  5
54
330
1F
100
AcDbEntity
  8
1
  6
Continuous
 62
     4
100
AcDbLine
 10
89.08183780403067
 20
328.9946800169282
 30
0.0
 11
89.61124956873655
 21
328.7946800169282
 31
0.0
  0
LINE
  5
55
330
1F
100
AcDbEntity
  8
1
  6
Continuous
 62
     4
100
AcDbLine
 10
88.55242603932479
 20
328.7946800169282
 30
0.0
 11
89.08183780403067
 21
328.9946800169282
 31
0.0
  0
LINE
  5
56
330
1F
100
AcDbEntity
  8
1
  6
Continuous
 62
     4
100
AcDbLine
 10
88.1994848628542
 20
328.3946800169282
 30
0.0
 11
88.55242603932479
 21
328.7946800169282
 31
0.0
  0
LINE
  5
57
330
1F
100
AcDbEntity
  8
1
  6
Continuous
 62
     4
100
AcDbLine
 10
87.22889662756009
 20
328.6946800169282
 30
0.0
 11
85.3759554510895
 21
326.4946800169282
 31
0.0
  0
LINE
  5
58
330
1F
100
AcDbEntity
  8
1
  6
Continuous
 62
     4
100
AcDbLine
 10
84.49360250991302
 20
328.9946800169282
 30
0.0
 11
84.49360250991302
 21
325.9946800169282
 31
0.0
  0
LINE
  5
59
330
1F
100
AcDbEntity
  8
1
  6
Continuous
 62
     4
100
AcDbLine
 10
84.05242603932479
 20
328.6946800169282
 30
0.0
 11
84.49360250991302
 21
328.9946800169282
 31
0.0
  0
LINE
  5
5A
330
1F
100
AcDbEntity
  8
1
  6
Continuous
 62
     4
100
AcDbLine
 10
82.99360250991303
 20
326.2946800169282
 30
0.0
 11
83.17007309814832
 21
326.5946800169282
 31
0.0
  0
LINE
  5
5B
330
1F
100
AcDbEntity
  8
1
  6
Continuous
 62
     4
100
AcDbLine
 10
82.72889662756009
 20
326.0946800169282
 30
0.0
 11
82.99360250991303
 21
326.2946800169282
 31
0.0
  0
LINE
  5
5C
330
1F
100
AcDbEntity
  8
1
  6
Continuous
 62
     4
100
AcDbLine
 10
82.3759554510895
 20
325.9946800169282
 30
0.0
 11
82.72889662756009
 21
326.0946800169282
 31
0.0
  0
LINE
  5
5D
330
1F
100
AcDbEntity
  8
1
  6
Continuous
 62
     4
100
AcDbLine
 10
82.11124956873655
 20
325.9946800169282
 30
0.0
 11
82.3759554510895
 21
325.9946800169282
 31
0.0
  0
LINE
  5
5E
330
1F
100
AcDbEntity
  8
1
  6
Continuous
 62
     4
100
AcDbLine
 10
81.93477898050126
 20
326.0946800169282
 30
0.0
 11
82.11124956873655
 21
325.9946800169282
 31
0.0
  0
LINE
  5
5F
330
1F
100
AcDbEntity
  8
1
  6
Continuous
 62
     4
100
AcDbLine
 10
81.84654368638361
 20
326.2946800169282
 30
0.0
 11
81.93477898050126
 21
326.0946800169282
 31
0.0
  0
LINE
  5
60
330
1F
100
AcDbEntity
  8
1
  6
Continuous
 62
     4
100
AcDbLine
 10
81.75830839226597
 20
326.5946800169282
 30
0.0
 11
81.84654368638361
 21
326.2946800169282
 31
0.0
  0
LINE
  5
61
330
1F
100
AcDbEntity
  8
1
  6
Continuous
 62
     4
100
AcDbLine
 10
81.67007309814832
 20
326.9946800169282
 30
0.0
 11
81.75830839226597
 21
326.5946800169282
 31
0.0
  0
LINE
  5
62
330
1F
100
AcDbEntity
  8
1
  6
Continuous
 62
     4
100
AcDbLine
 10
81.75830839226597
 20
327.4946800169282
 30
0.0
 11
81.67007309814832
 21
326.9946800169282
 31
0.0
  0
LINE
  5
63
330
1F
100
AcDbEntity
  8
1
  6
Continuous
 62
     4
100
AcDbLine
 10
81.84654368638361
 20
327.7946800169282
 30
0.0
 11
81.75830839226597
 21
327.4946800169282
 31
0.0
  0
LINE
  5
64
330
1F
100
AcDbEntity
  8
1
  6
Continuous
 62
     4
100
AcDbLine
 10
82.02301427461892
 20
328.0946800169282
 30
0.0
 11
81.84654368638361
 21
327.7946800169282
 31
0.0
  0
LINE
  5
65
330
1F
100
AcDbEntity
  8
1
  6
Continuous
 62
     4
100
AcDbLine
 10
82.3759554510895
 20
328.1946800169282
 30
0.0
 11
82.02301427461892
 21
328.0946800169282
 31
0.0
  0
LINE
  5
66
330
1F
100
AcDbEntity
  8
1
  6
Continuous
 62
     4
100
AcDbLine
 10
82.72889662756009
 20
328.0946800169282
 30
0.0
 11
82.3759554510895
 21
328.1946800169282
 31
0.0
  0
LINE
  5
67
330
1F
100
AcDbEntity
  8
1
  6
Continuous
 62
     4
100
AcDbLine
 10
82.99360250991303
 20
327.8946800169282
 30
0.0
 11
82.72889662756009
 21
328.0946800169282
 31
0.0
  0
LINE
  5
68
330
1F
100
AcDbEntity
  8
1
  6
Continuous
 62
     4
100
AcDbLine
 10
83.17007309814832
 20
327.6946800169282
 30
0.0
 11
82.99360250991303
 21
327.8946800169282
 31
0.0
  0
LINE
  5
69
330
1F
100
AcDbEntity
  8
1
  6
Continuous
 62
     4
100
AcDbLine
 10
78.93477898050125
 20
327.3946800169282
 30
0.0
 11
78.93477898050125
 21
328.9946800169282
 31
0.0
  0
LINE
  5
6A
330
1F
100
AcDbEntity
  8
1
  6
Continuous
 62
     4
100
AcDbLine
 10
80.08183780403066
 20
327.3946800169282
 30
0.0
 11
80.78772015697184
 21
325.9946800169282
 31
0.0
  0
LINE
  5
6B
330
1F
100
AcDbEntity
  8
1
  6
Continuous
 62
     4
100
AcDbLine
 10
80.08183780403066
 20
327.3946800169282
 30
0.0
 11
78.93477898050125
 21
327.3946800169282
 31
0.0
  0
LINE
  5
6C
330
1F
100
AcDbEntity
  8
1
  6
Continuous
 62
     4
100
AcDbLine
 10
80.43477898050125
 20
327.5946800169282
 30
0.0
 11
80.08183780403066
 21
327.3946800169282
 31
0.0
  0
LINE
  5
6D
330
1F
100
AcDbEntity
  8
1
  6
Continuous
 62
     4
100
AcDbLine
 10
80.61124956873654
 20
327.7946800169282
 30
0.0
 11
80.43477898050125
 21
327.5946800169282
 31
0.0
  0
LINE
  5
6E
330
1F
100
AcDbEntity
  8
1
  6
Continuous
 62
     4
100
AcDbLine
 10
80.69948486285419
 20
328.1946800169282
 30
0.0
 11
80.61124956873654
 21
327.7946800169282
 31
0.0
  0
LINE
  5
6F
330
1F
100
AcDbEntity
  8
1
  6
Continuous
 62
     4
100
AcDbLine
 10
80.61124956873654
 20
328.4946800169282
 30
0.0
 11
80.69948486285419
 21
328.1946800169282
 31
0.0
  0
LINE
  5
70
330
1F
100
AcDbEntity
  8
1
  6
Continuous
 62
     4
100
AcDbLine
 10
80.43477898050125
 20
328.7946800169282
 30
0.0
 11
80.61124956873654
 21
328.4946800169282
 31
0.0
  0
LINE
  5
71
330
1F
100
AcDbEntity
  8
1
  6
Continuous
 62
     4
100
AcDbLine
 10
80.08183780403066
 20
328.9946800169282
 30
0.0
 11
80.43477898050125
 21
328.7946800169282
 31
0.0
  0
LINE
  5
72
330
1F
100
AcDbEntity
  8
1
  6
Continuous
 62
     4
100
AcDbLine
 10
78.93477898050125
 20
328.9946800169282
 30
0.0
 11
80.08183780403066
 21
328.9946800169282
 31
0.0
  0
LINE
  5
73
330
1F
100
AcDbEntity
  8
1
  6
Continuous
 62
     4
100
AcDbLine
 10
78.93477898050125
 20
325.9946800169282
 30
0.0
 11
78.93477898050125
 21
327.3946800169282
 31
0.0
  0
LINE
  5
74
330
1F
100
AcDbEntity
  8
1
  6
Continuous
 62
     4
100
AcDbLine
 10
213.1240445489106
 20
294.9946800169282
 30
0.0
 11
215.0652210194988
 21
294.9946800169282
 31
0.0
  0
LINE
  5
75
330
1F
100
AcDbEntity
  8
1
  6
Continuous
 62
     4
100
AcDbLine
 10
213.3005151371459
 20
295.4946800169282
 30
0.0
 11
213.1240445489106
 21
294.9946800169282
 31
0.0
  0
LINE
  5
76
330
1F
100
AcDbEntity
  8
1
  6
Continuous
 62
     4
100
AcDbLine
 10
213.4769857253812
 20
295.7946800169282
 30
0.0
 11
213.3005151371459
 21
295.4946800169282
 31
0.0
  0
LINE
  5
77
330
1F
100
AcDbEntity
  8
1
  6
Continuous
 62
     4
100
AcDbLine
 10
213.8299269018518
 20
296.0946800169282
 30
0.0
 11
213.4769857253812
 21
295.7946800169282
 31
0.0
  0
LINE
  5
78
330
1F
100
AcDbEntity
  8
1
  6
Continuous
 62
     4
100
AcDbLine
 10
214.1828680783224
 20
296.2946800169282
 30
0.0
 11
213.8299269018518
 21
296.0946800169282
 31
0.0
  0
LINE
  5
79
330
1F
100
AcDbEntity
  8
1
  6
Continuous
 62
     4
100
AcDbLine
 10
214.6240445489106
 20
296.5946800169282
 30
0.0
 11
214.1828680783224
 21
296.2946800169282
 31
0.0
  0
LINE
  5
7A
330
1F
100
AcDbEntity
  8
1
  6
Continuous
 62
     4
100
AcDbLine
 10
214.8887504312635
 20
296.9946800169282
 30
0.0
 11
214.6240445489106
 21
296.5946800169282
 31
0.0
  0
LINE
  5
7B
330
1F
100
AcDbEntity
  8
1
  6
Continuous
 62
     4
100
AcDbLine
 10
214.9769857253812
 20
297.3946800169282
 30
0.0
 11
214.8887504312635
 21
296.9946800169282
 31
0.0
  0
LINE
  5
7C
330
1F
100
AcDbEntity
  8
1
  6
Continuous
 62
     4
100
AcDbLine
 10
214.6240445489106
 20
297.7946800169282
 30
0.0
 11
214.9769857253812
 21
297.3946800169282
 31
0.0
  0
LINE
  5
7D
330
1F
100
AcDbEntity
  8
1
  6
Continuous
 62
     4
100
AcDbLine
 10
214.0946327842047
 20
297.9946800169282
 30
0.0
 11
214.6240445489106
 21
297.7946800169282
 31
0.0
  0
LINE
  5
7E
330
1F
100
AcDbEntity
  8
1
  6
Continuous
 62
     4
100
AcDbLine
 10
213.5652210194988
 20
297.7946800169282
 30
0.0
 11
214.0946327842047
 21
297.9946800169282
 31
0.0
  0
LINE
  5
7F
330
1F
100
AcDbEntity
  8
1
  6
Continuous
 62
     4
100
AcDbLine
 10
213.2122798430283
 20
297.3946800169282
 30
0.0
 11
213.5652210194988
 21
297.7946800169282
 31
0.0
  0
LINE
  5
80
330
1F
100
AcDbEntity
  8
1
  6
Continuous
 62
     4
100
AcDbLine
 10
212.2416916077341
 20
297.6946800169282
 30
0.0
 11
210.3887504312635
 21
295.4946800169282
 31
0.0
  0
LINE
  5
81
330
1F
100
AcDbEntity
  8
1
  6
Continuous
 62
     4
100
AcDbLine
 10
209.5063974900871
 20
297.9946800169282
 30
0.0
 11
209.5063974900871
 21
294.9946800169282
 31
0.0
  0
LINE
  5
82
330
1F
100
AcDbEntity
  8
1
  6
Continuous
 62
     4
100
AcDbLine
 10
209.0652210194988
 20
297.6946800169282
 30
0.0
 11
209.5063974900871
 21
297.9946800169282
 31
0.0
  0
LINE
  5
83
330
1F
100
AcDbEntity
  8
1
  6
Continuous
 62
     4
100
AcDbLine
 10
208.0063974900871
 20
295.2946800169282
 30
0.0
 11
208.1828680783224
 21
295.5946800169282
 31
0.0
  0
LINE
  5
84
330
1F
100
AcDbEntity
  8
1
  6
Continuous
 62
     4
100
AcDbLine
 10
207.7416916077341
 20
295.0946800169282
 30
0.0
 11
208.0063974900871
 21
295.2946800169282
 31
0.0
  0
LINE
  5
85
330
1F
100
AcDbEntity
  8
1
  6
Continuous
 62
     4
100
AcDbLine
 10
207.3887504312636
 20
294.9946800169282
 30
0.0
 11
207.7416916077341
 21
295.0946800169282
 31
0.0
  0
LINE
  5
86
330
1F
100
AcDbEntity
  8
1
  6
Continuous
 62
     4
100
AcDbLine
 10
207.1240445489106
 20
294.9946800169282
 30
0.0
 11
207.3887504312636
 21
294.9946800169282
 31
0.0
  0
LINE
  5
87
330
1F
100
AcDbEntity
  8
1
  6
Continuous
 62
     4
100
AcDbLine
 10
206.9475739606753
 20
295.0946800169282
 30
0.0
 11
207.1240445489106
 21
294.9946800169282
 31
0.0
  0
LINE
  5
88
330
1F
100
AcDbEntity
  8
1
  6
Continuous
 62
     4
100
AcDbLine
 10
206.8593386665577
 20
295.2946800169282
 30
0.0
 11
206.9475739606753
 21
295.0946800169282
 31
0.0
  0
LINE
  5
89
330
1F
100
AcDbEntity
  8
1
  6
Continuous
 62
     4
100
AcDbLine
 10
206.77110337244
 20
295.5946800169282
 30
0.0
 11
206.8593386665577
 21
295.2946800169282
 31
0.0
  0
LINE
  5
8A
330
1F
100
AcDbEntity
  8
1
  6
Continuous
 62
     4
100
AcDbLine
 10
206.6828680783224
 20
295.9946800169282
 30
0.0
 11
206.77110337244
 21
295.5946800169282
 31
0.0
  0
LINE
  5
8B
330
1F
100
AcDbEntity
  8
1
  6
Continuous
 62
     4
100
AcDbLine
 10
206.77110337244
 20
296.4946800169282
 30
0.0
 11
206.6828680783224
 21
295.9946800169282
 31
0.0
  0
LINE
  5
8C
330
1F
100
AcDbEntity
  8
1
  6
Continuous
 62
     4
100
AcDbLine
 10
206.8593386665577
 20
296.7946800169282
 30
0.0
 11
206.77110337244
 21
296.4946800169282
 31
0.0
  0
LINE
  5
8D
330
1F
100
AcDbEntity
  8
1
  6
Continuous
 62
     4
100
AcDbLine
 10
207.035809254793
 20
297.0946800169282
 30
0.0
 11
206.8593386665577
 21
296.7946800169282
 31
0.0
  0
LINE
  5
8E
330
1F
100
AcDbEntity
  8
1
  6
Continuous
 62
     4
100
AcDbLine
 10
207.3887504312636
 20
297.1946800169282
 30
0.0
 11
207.035809254793
 21
297.0946800169282
 31
0.0
  0
LINE
  5
8F
330
1F
100
AcDbEntity
  8
1
  6
Continuous
 62
     4
100
AcDbLine
 10
207.7416916077341
 20
297.0946800169282
 30
0.0
 11
207.3887504312636
 21
297.1946800169282
 31
0.0
  0
LINE
  5
90
330
1F
100
AcDbEntity
  8
1
  6
Continuous
 62
     4
100
AcDbLine
 10
208.0063974900871
 20
296.8946800169282
 30
0.0
 11
207.7416916077341
 21
297.0946800169282
 31
0.0
  0
LINE
  5
91
330
1F
100
AcDbEntity
  8
1
  6
Continuous
 62
     4
100
AcDbLine
 10
208.1828680783224
 20
296.6946800169282
 30
0.0
 11
208.0063974900871
 21
296.8946800169282
 31
0.0
  0
LINE
  5
92
330
1F
100
AcDbEntity
  8
1
  6
Continuous
 62
     4
100
AcDbLine
 10
203.9475739606753
 20
296.3946800169282
 30
0.0
 11
203.9475739606753
 21
297.9946800169282
 31
0.0
  0
LINE
  5
93
330
1F
100
AcDbEntity
  8
1
  6
Continuous
 62
     4
100
AcDbLine
 10
205.0946327842047
 20
296.3946800169282
 30
0.0
 11
205.8005151371459
 21
294.9946800169282
 31
0.0
  0
LINE
  5
94
330
1F
100
AcDbEntity
  8
1
  6
Continuous
 62
     4
100
AcDbLine
 10
205.0946327842047
 20
296.3946800169282
 30
0.0
 11
203.9475739606753
 21
296.3946800169282
 31
0.0
  0
LINE
  5
95
330
1F
100
AcDbEntity
  8
1
  6
Continuous
 62
     4
100
AcDbLine
 10
205.4475739606753
 20
296.5946800169282
 30
0.0
 11
205.0946327842047
 21
296.3946800169282
 31
0.0
  0
LINE
  5
96
330
1F
100
AcDbEntity
  8
1
  6
Continuous
 62
     4
100
AcDbLine
 10
205.6240445489106
 20
296.7946800169282
 30
0.0
 11
205.4475739606753
 21
296.5946800169282
 31
0.0
  0
LINE
  5
97
330
1F
100
AcDbEntity
  8
1
  6
Continuous
 62
     4
100
AcDbLine
 10
205.7122798430282
 20
297.1946800169282
 30
0.0
 11
205.6240445489106
 21
296.7946800169282
 31
0.0
  0
LINE
  5
98
330
1F
100
AcDbEntity
  8
1
  6
Continuous
 62
     4
100
AcDbLine
 10
205.6240445489106
 20
297.4946800169282
 30
0.0
 11
205.7122798430282
 21
297.1946800169282
 31
0.0
  0
LINE
  5
99
330
1F
100
AcDbEntity
  8
1
  6
Continuous
 62
     4
100
AcDbLine
 10
205.4475739606753
 20
297.7946800169282
 30
0.0
 11
205.6240445489106
 21
297.4946800169282
 31
0.0
  0
LINE
  5
9A
330
1F
100
AcDbEntity
  8
1
  6
Continuous
 62
     4
100
AcDbLine
 10
205.0946327842047
 20
297.9946800169282
 30
0.0
 11
205.4475739606753
 21
297.7946800169282
 31
0.0
  0
LINE
  5
9B
330
1F
100
AcDbEntity
  8
1
  6
Continuous
 62
     4
100
AcDbLine
 10
203.9475739606753
 20
297.9946800169282
 30
0.0
 11
205.0946327842047
 21
297.9946800169282
 31
0.0
  0
LINE
  5
9C
330
1F
100
AcDbEntity
  8
1
  6
Continuous
 62
     4
100
AcDbLine
 10
203.9475739606753
 20
294.9946800169282
 30
0.0
 11
203.9475739606753
 21
296.3946800169282
 31
0.0
  0
LINE
  5
9D
330
1F
100
AcDbEntity
  8
1
  6
Continuous
 62
     4
100
AcDbLine
 10
107.9117647058824
 20
227.6
 30
0.0
 11
109.2352941176471
 21
227.6
 31
0.0
  0
LINE
  5
9E
330
1F
100
AcDbEntity
  8
1
  6
Continuous
 62
     4
100
AcDbLine
 10
107.2941176470588
 20
225.7
 30
0.0
 11
107.2941176470588
 21
227.1
 31
0.0
  0
LINE
  5
9F
330
1F
100
AcDbEntity
  8
1
  6
Continuous
 62
     4
100
AcDbLine
 10
108.7941176470588
 20
225.7
 30
0.0
 11
107.2941176470588
 21
225.7
 31
0.0
  0
LINE
  5
A0
330
1F
100
AcDbEntity
  8
1
  6
Continuous
 62
     4
100
AcDbLine
 10
108.7941176470588
 20
227.1
 30
0.0
 11
108.7941176470588
 21
225.7
 31
0.0
  0
LINE
  5
A1
330
1F
100
AcDbEntity
  8
1
  6
Continuous
 62
     4
100
AcDbLine
 10
107.2941176470588
 20
227.1
 30
0.0
 11
108.7941176470588
 21
227.1
 31
0.0
  0
LINE
  5
A2
330
1F
100
AcDbEntity
  8
1
  6
Continuous
 62
     4
100
AcDbLine
 10
108.9705882352941
 20
225.0
 30
0.0
 11
108.5294117647059
 21
225.1
 31
0.0
  0
LINE
  5
A3
330
1F
100
AcDbEntity
  8
1
  6
Continuous
 62
     4
100
AcDbLine
 10
109.2352941176471
 20
225.3
 30
0.0
 11
108.9705882352941
 21
225.0
 31
0.0
  0
LINE
  5
A4
330
1F
100
AcDbEntity
  8
1
  6
Continuous
 62
     4
100
AcDbLine
 10
109.2352941176471
 20
227.6
 30
0.0
 11
109.2352941176471
 21
225.3
 31
0.0
  0
LINE
  5
A5
330
1F
100
AcDbEntity
  8
1
  6
Continuous
 62
     4
100
AcDbLine
 10
106.8529411764706
 20
227.6
 30
0.0
 11
107.9117647058824
 21
227.6
 31
0.0
  0
LINE
  5
A6
330
1F
100
AcDbEntity
  8
1
  6
Continuous
 62
     4
100
AcDbLine
 10
106.8529411764706
 20
225.0
 30
0.0
 11
106.8529411764706
 21
227.6
 31
0.0
  0
LINE
  5
A7
330
1F
100
AcDbEntity
  8
1
  6
Continuous
 62
     4
100
AcDbLine
 10
108.0882352941177
 20
228.0
 30
0.0
 11
107.9117647058824
 21
227.6
 31
0.0
  0
LINE
  5
A8
330
1F
100
AcDbEntity
  8
1
  6
Continuous
 62
     4
100
AcDbLine
 10
103.9411764705882
 20
227.6
 30
0.0
 11
105.7941176470588
 21
227.6
 31
0.0
  0
LINE
  5
A9
330
1F
100
AcDbEntity
  8
1
  6
Continuous
 62
     4
100
AcDbLine
 10
103.9411764705882
 20
226.9
 30
0.0
 11
103.9411764705882
 21
226.6
 31
0.0
  0
LINE
  5
AA
330
1F
100
AcDbEntity
  8
1
  6
Continuous
 62
     4
100
AcDbLine
 10
105.0882352941177
 20
225.0
 30
0.0
 11
104.2941176470588
 21
225.1
 31
0.0
  0
LINE
  5
AB
330
1F
100
AcDbEntity
  8
1
  6
Continuous
 62
     4
100
AcDbLine
 10
105.6176470588235
 20
225.7
 30
0.0
 11
105.0882352941177
 21
225.0
 31
0.0
  0
LINE
  5
AC
330
1F
100
AcDbEntity
  8
1
  6
Continuous
 62
     4
100
AcDbLine
 10
105.6176470588235
 20
226.9
 30
0.0
 11
105.6176470588235
 21
225.7
 31
0.0
  0
LINE
  5
AD
330
1F
100
AcDbEntity
  8
1
  6
Continuous
 62
     4
100
AcDbLine
 10
103.9411764705882
 20
226.9
 30
0.0
 11
105.6176470588235
 21
226.9
 31
0.0
  0
LINE
  5
AE
330
1F
100
AcDbEntity
  8
1
  6
Continuous
 62
     4
100
AcDbLine
 10
103.6764705882353
 20
225.7
 30
0.0
 11
103.1470588235294
 21
225.0
 31
0.0
  0
LINE
  5
AF
330
1F
100
AcDbEntity
  8
1
  6
Continuous
 62
     4
100
AcDbLine
 10
103.9411764705882
 20
226.6
 30
0.0
 11
103.6764705882353
 21
225.7
 31
0.0
  0
LINE
  5
B0
330
1F
100
AcDbEntity
  8
1
  6
Continuous
 62
     4
100
AcDbLine
 10
103.9411764705882
 20
227.6
 30
0.0
 11
103.9411764705882
 21
226.9
 31
0.0
  0
LINE
  5
B1
330
1F
100
AcDbEntity
  8
1
  6
Continuous
 62
     4
100
AcDbLine
 10
103.1470588235294
 20
227.6
 30
0.0
 11
103.9411764705882
 21
227.6
 31
0.0
  0
LINE
  5
B2
330
1F
100
AcDbEntity
  8
1
  6
Continuous
 62
     4
100
AcDbLine
 10
104.5588235294118
 20
228.0
 30
0.0
 11
104.5588235294118
 21
227.6
 31
0.0
  0
LINE
  5
B3
330
1F
100
AcDbEntity
  8
1
  6
Continuous
 62
     4
100
AcDbLine
 10
100.9411764705882
 20
227.7
 30
0.0
 11
100.9411764705882
 21
224.9
 31
0.0
  0
LINE
  5
B4
330
1F
100
AcDbEntity
  8
1
  6
Continuous
 62
     4
100
AcDbLine
 10
101.7352941176471
 20
225.8
 30
0.0
 11
102.3529411764706
 21
225.1
 31
0.0
  0
LINE
  5
B5
330
1F
100
AcDbEntity
  8
1
  6
Continuous
 62
     4
100
AcDbLine
 10
101.2941176470588
 20
226.6
 30
0.0
 11
101.7352941176471
 21
225.8
 31
0.0
  0
LINE
  5
B6
330
1F
100
AcDbEntity
  8
1
  6
Continuous
 62
     4
100
AcDbLine
 10
100.9411764705882
 20
227.7
 30
0.0
 11
101.2941176470588
 21
226.6
 31
0.0
  0
LINE
  5
B7
330
1F
100
AcDbEntity
  8
1
  6
Continuous
 62
     4
100
AcDbLine
 10
102.1764705882353
 20
227.7
 30
0.0
 11
101.4705882352941
 21
226.7
 31
0.0
  0
LINE
  5
B8
330
1F
100
AcDbEntity
  8
1
  6
Continuous
 62
     4
100
AcDbLine
 10
100.1470588235294
 20
225.9
 30
0.0
 11
99.61764705882354
 21
225.2
 31
0.0
  0
LINE
  5
B9
330
1F
100
AcDbEntity
  8
1
  6
Continuous
 62
     4
100
AcDbLine
 10
100.4117647058824
 20
226.6
 30
0.0
 11
100.1470588235294
 21
225.9
 31
0.0
  0
LINE
  5
BA
330
1F
100
AcDbEntity
  8
1
  6
Continuous
 62
     4
100
AcDbLine
 10
100.5
 20
227.4
 30
0.0
 11
100.4117647058824
 21
226.6
 31
0.0
  0
LINE
  5
BB
330
1F
100
AcDbEntity
  8
1
  6
Continuous
 62
     4
100
AcDbLine
 10
99.61764705882354
 20
227.4
 30
0.0
 11
100.5
 21
227.4
 31
0.0
  0
LINE
  5
BC
330
1F
100
AcDbEntity
  8
1
  6
Continuous
 62
     4
100
AcDbLine
 10
100.9411764705882
 20
224.9
 30
0.0
 11
100.3235294117647
 21
225.3
 31
0.0
  0
LINE
  5
BD
330
1F
100
AcDbEntity
  8
1
  6
Continuous
 62
     4
100
AcDbLine
 10
100.9411764705882
 20
228.0
 30
0.0
 11
100.9411764705882
 21
227.7
 31
0.0
  0
LINE
  5
BE
330
1F
100
AcDbEntity
  8
1
  6
Continuous
 62
     4
100
AcDbLine
 10
97.67647058823529
 20
227.7
 30
0.0
 11
98.6470588235294
 21
227.7
 31
0.0
  0
LINE
  5
BF
330
1F
100
AcDbEntity
  8
1
  6
Continuous
 62
     4
100
AcDbLine
 10
98.73529411764706
 20
225.0
 30
0.0
 11
98.73529411764706
 21
225.7
 31
0.0
  0
LINE
  5
C0
330
1F
100
AcDbEntity
  8
1
  6
Continuous
 62
     4
100
AcDbLine
 10
98.29411764705883
 20
225.0
 30
0.0
 11
98.73529411764706
 21
225.0
 31
0.0
  0
LINE
  5
C1
330
1F
100
AcDbEntity
  8
1
  6
Continuous
 62
     4
100
AcDbLine
 10
98.29411764705883
 20
226.6
 30
0.0
 11
98.29411764705883
 21
225.0
 31
0.0
  0
LINE
  5
C2
330
1F
100
AcDbEntity
  8
1
  6
Continuous
 62
     4
100
AcDbLine
 10
97.67647058823529
 20
226.6
 30
0.0
 11
97.67647058823529
 21
225.0
 31
0.0
  0
LINE
  5
C3
330
1F
100
AcDbEntity
  8
1
  6
Continuous
 62
     4
100
AcDbLine
 10
96.88235294117646
 20
225.5
 30
0.0
 11
96.52941176470588
 21
225.0
 31
0.0
  0
LINE
  5
C4
330
1F
100
AcDbEntity
  8
1
  6
Continuous
 62
     4
100
AcDbLine
 10
97.05882352941177
 20
226.0
 30
0.0
 11
96.88235294117646
 21
225.5
 31
0.0
  0
LINE
  5
C5
330
1F
100
AcDbEntity
  8
1
  6
Continuous
 62
     4
100
AcDbLine
 10
97.1470588235294
 20
226.6
 30
0.0
 11
97.05882352941177
 21
226.0
 31
0.0
  0
LINE
  5
C6
330
1F
100
AcDbEntity
  8
1
  6
Continuous
 62
     4
100
AcDbLine
 10
98.55882352941177
 20
226.7
 30
0.0
 11
98.73529411764706
 21
226.3
 31
0.0
  0
LINE
  5
C7
330
1F
100
AcDbEntity
  8
1
  6
Continuous
 62
     4
100
AcDbLine
 10
98.20588235294117
 20
227.3
 30
0.0
 11
98.55882352941177
 21
226.7
 31
0.0
  0
LINE
  5
C8
330
1F
100
AcDbEntity
  8
1
  6
Continuous
 62
     4
100
AcDbLine
 10
96.97058823529412
 20
226.6
 30
0.0
 11
98.55882352941177
 21
226.7
 31
0.0
  0
LINE
  5
C9
330
1F
100
AcDbEntity
  8
1
  6
Continuous
 62
     4
100
AcDbLine
 10
96.70588235294117
 20
226.6
 30
0.0
 11
96.97058823529412
 21
226.6
 31
0.0
  0
LINE
  5
CA
330
1F
100
AcDbEntity
  8
1
  6
Continuous
 62
     4
100
AcDbLine
 10
97.67647058823529
 20
227.7
 30
0.0
 11
96.97058823529412
 21
226.6
 31
0.0
  0
LINE
  5
CB
330
1F
100
AcDbEntity
  8
1
  6
Continuous
 62
     4
100
AcDbLine
 10
97.67647058823529
 20
228.1
 30
0.0
 11
97.67647058823529
 21
227.7
 31
0.0
  0
LINE
  5
CC
330
1F
100
AcDbEntity
  8
1
  6
Continuous
 62
     4
100
AcDbLine
 10
96.70588235294117
 20
227.7
 30
0.0
 11
97.67647058823529
 21
227.7
 31
0.0
  0
LINE
  5
CD
330
1F
100
AcDbEntity
  8
1
  6
Continuous
 62
     4
100
AcDbLine
 10
96.17647058823529
 20
225.0
 30
0.0
 11
96.61764705882354
 21
226.2
 31
0.0
  0
LINE
  5
CE
330
1F
100
AcDbEntity
  8
1
  6
Continuous
 62
     4
100
AcDbLine
 10
96.17647058823529
 20
226.9
 30
0.0
 11
96.61764705882354
 21
226.5
 31
0.0
  0
LINE
  5
CF
330
1F
100
AcDbEntity
  8
1
  6
Continuous
 62
     4
100
AcDbLine
 10
96.26470588235294
 20
227.8
 30
0.0
 11
96.70588235294117
 21
227.4
 31
0.0
  0
LINE
  5
D0
330
1F
100
AcDbEntity
  8
1
  6
Continuous
 62
     4
100
AcDbLine
 10
201.5588235294118
 20
156.8
 30
0.0
 11
201.0294117647059
 21
157.0
 31
0.0
  0
LINE
  5
D1
330
1F
100
AcDbEntity
  8
1
  6
Continuous
 62
     4
100
AcDbLine
 10
201.9117647058824
 20
156.3
 30
0.0
 11
201.5588235294118
 21
156.8
 31
0.0
  0
LINE
  5
D2
330
1F
100
AcDbEntity
  8
1
  6
Continuous
 62
     4
100
AcDbLine
 10
202.0
 20
155.5
 30
0.0
 11
201.9117647058824
 21
156.3
 31
0.0
  0
LINE
  5
D3
330
1F
100
AcDbEntity
  8
1
  6
Continuous
 62
     4
100
AcDbLine
 10
201.9117647058824
 20
154.7
 30
0.0
 11
202.0
 21
155.5
 31
0.0
  0
LINE
  5
D4
330
1F
100
AcDbEntity
  8
1
  6
Continuous
 62
     4
100
AcDbLine
 10
201.5588235294118
 20
154.2
 30
0.0
 11
201.9117647058824
 21
154.7
 31
0.0
  0
LINE
  5
D5
330
1F
100
AcDbEntity
  8
1
  6
Continuous
 62
     4
100
AcDbLine
 10
201.0294117647059
 20
154.0
 30
0.0
 11
201.5588235294118
 21
154.2
 31
0.0
  0
LINE
  5
D6
330
1F
100
AcDbEntity
  8
1
  6
Continuous
 62
     4
100
AcDbLine
 10
200.5
 20
154.2
 30
0.0
 11
201.0294117647059
 21
154.0
 31
0.0
  0
LINE
  5
D7
330
1F
100
AcDbEntity
  8
1
  6
Continuous
 62
     4
100
AcDbLine
 10
200.2352941176471
 20
154.7
 30
0.0
 11
200.5
 21
154.2
 31
0.0
  0
LINE
  5
D8
330
1F
100
AcDbEntity
  8
1
  6
Continuous
 62
     4
100
AcDbLine
 10
200.0588235294118
 20
155.5
 30
0.0
 11
200.2352941176471
 21
154.7
 31
0.0
  0
LINE
  5
D9
330
1F
100
AcDbEntity
  8
1
  6
Continuous
 62
     4
100
AcDbLine
 10
200.2352941176471
 20
156.3
 30
0.0
 11
200.0588235294118
 21
155.5
 31
0.0
  0
LINE
  5
DA
330
1F
100
AcDbEntity
  8
1
  6
Continuous
 62
     4
100
AcDbLine
 10
200.5
 20
156.8
 30
0.0
 11
200.2352941176471
 21
156.3
 31
0.0
  0
LINE
  5
DB
330
1F
100
AcDbEntity
  8
1
  6
Continuous
 62
     4
100
AcDbLine
 10
201.0294117647059
 20
157.0
 30
0.0
 11
200.5
 21
156.8
 31
0.0
  0
LINE
  5
DC
330
1F
100
AcDbEntity
  8
1
  6
Continuous
 62
     4
100
AcDbLine
 10
197.5882352941177
 20
155.5
 30
0.0
 11
199.1764705882353
 21
155.5
 31
0.0
  0
LINE
  5
DD
330
1F
100
AcDbEntity
  8
1
  6
Continuous
 62
     4
100
AcDbLine
 10
196.7058823529412
 20
157.0
 30
0.0
 11
196.7058823529412
 21
154.0
 31
0.0
  0
LINE
  5
DE
330
1F
100
AcDbEntity
  8
1
  6
Continuous
 62
     4
100
AcDbLine
 10
196.264705882353
 20
156.7
 30
0.0
 11
196.7058823529412
 21
157.0
 31
0.0
  0
LINE
  5
DF
330
1F
100
AcDbEntity
  8
1
  6
Continuous
 62
     4
100
AcDbLine
 10
194.9411764705882
 20
156.8
 30
0.0
 11
194.4117647058824
 21
157.0
 31
0.0
  0
LINE
  5
E0
330
1F
100
AcDbEntity
  8
1
  6
Continuous
 62
     4
100
AcDbLine
 10
195.2941176470588
 20
156.3
 30
0.0
 11
194.9411764705882
 21
156.8
 31
0.0
  0
LINE
  5
E1
330
1F
100
AcDbEntity
  8
1
  6
Continuous
 62
     4
100
AcDbLine
 10
195.3823529411765
 20
155.5
 30
0.0
 11
195.2941176470588
 21
156.3
 31
0.0
  0
LINE
  5
E2
330
1F
100
AcDbEntity
  8
1
  6
Continuous
 62
     4
100
AcDbLine
 10
195.2941176470588
 20
154.7
 30
0.0
 11
195.3823529411765
 21
155.5
 31
0.0
  0
LINE
  5
E3
330
1F
100
AcDbEntity
  8
1
  6
Continuous
 62
     4
100
AcDbLine
 10
194.9411764705882
 20
154.2
 30
0.0
 11
195.2941176470588
 21
154.7
 31
0.0
  0
LINE
  5
E4
330
1F
100
AcDbEntity
  8
1
  6
Continuous
 62
     4
100
AcDbLine
 10
194.4117647058824
 20
154.0
 30
0.0
 11
194.9411764705882
 21
154.2
 31
0.0
  0
LINE
  5
E5
330
1F
100
AcDbEntity
  8
1
  6
Continuous
 62
     4
100
AcDbLine
 10
193.8823529411765
 20
154.2
 30
0.0
 11
194.4117647058824
 21
154.0
 31
0.0
  0
LINE
  5
E6
330
1F
100
AcDbEntity
  8
1
  6
Continuous
 62
     4
100
AcDbLine
 10
193.6176470588235
 20
154.7
 30
0.0
 11
193.8823529411765
 21
154.2
 31
0.0
  0
LINE
  5
E7
330
1F
100
AcDbEntity
  8
1
  6
Continuous
 62
     4
100
AcDbLine
 10
193.4411764705882
 20
155.5
 30
0.0
 11
193.6176470588235
 21
154.7
 31
0.0
  0
LINE
  5
E8
330
1F
100
AcDbEntity
  8
1
  6
Continuous
 62
     4
100
AcDbLine
 10
193.6176470588235
 20
156.3
 30
0.0
 11
193.4411764705882
 21
155.5
 31
0.0
  0
LINE
  5
E9
330
1F
100
AcDbEntity
  8
1
  6
Continuous
 62
     4
100
AcDbLine
 10
193.8823529411765
 20
156.8
 30
0.0
 11
193.6176470588235
 21
156.3
 31
0.0
  0
LINE
  5
EA
330
1F
100
AcDbEntity
  8
1
  6
Continuous
 62
     4
100
AcDbLine
 10
194.4117647058824
 20
157.0
 30
0.0
 11
193.8823529411765
 21
156.8
 31
0.0
  0
LINE
  5
EB
330
1F
100
AcDbEntity
  8
1
  6
Continuous
 62
     4
100
AcDbLine
 10
190.8823529411765
 20
155.5
 30
0.0
 11
190.8823529411765
 21
154.0
 31
0.0
  0
LINE
  5
EC
330
1F
100
AcDbEntity
  8
1
  6
Continuous
 62
     4
100
AcDbLine
 10
190.8823529411765
 20
155.5
 30
0.0
 11
192.3823529411765
 21
155.5
 31
0.0
  0
LINE
  5
ED
330
1F
100
AcDbEntity
  8
1
  6
Continuous
 62
     4
100
AcDbLine
 10
190.8823529411765
 20
157.0
 30
0.0
 11
190.8823529411765
 21
155.5
 31
0.0
  0
LINE
  5
EE
330
1F
100
AcDbEntity
  8
1
  6
Continuous
 62
     4
100
AcDbLine
 10
192.5588235294118
 20
157.0
 30
0.0
 11
190.8823529411765
 21
157.0
 31
0.0
  0
LINE
  5
EF
330
1F
100
AcDbEntity
  8
1
  6
Continuous
 62
     4
100
AcDbLine
 10
188.3235294117647
 20
155.4
 30
0.0
 11
188.3235294117647
 21
154.0
 31
0.0
  0
LINE
  5
F0
330
1F
100
AcDbEntity
  8
1
  6
Continuous
 62
     4
100
AcDbLine
 10
190.0
 20
155.4
 30
0.0
 11
190.0
 21
154.0
 31
0.0
  0
LINE
  5
F1
330
1F
100
AcDbEntity
  8
1
  6
Continuous
 62
     4
100
AcDbLine
 10
190.0
 20
157.0
 30
0.0
 11
190.0
 21
155.4
 31
0.0
  0
LINE
  5
F2
330
1F
100
AcDbEntity
  8
1
  6
Continuous
 62
     4
100
AcDbLine
 10
188.3235294117647
 20
155.4
 30
0.0
 11
190.0
 21
155.4
 31
0.0
  0
LINE
  5
F3
330
1F
100
AcDbEntity
  8
1
  6
Continuous
 62
     4
100
AcDbLine
 10
188.3235294117647
 20
157.0
 30
0.0
 11
188.3235294117647
 21
155.4
 31
0.0
  0
LINE
  5
F4
330
1F
100
AcDbEntity
  8
1
  6
Continuous
 62
     4
100
AcDbLine
 10
186.5588235294118
 20
154.7
 30
0.0
 11
186.5588235294118
 21
154.0
 31
0.0
  0
LINE
  5
F5
330
1F
100
AcDbEntity
  8
1
  6
Continuous
 62
     4
100
AcDbLine
 10
186.7352941176471
 20
155.6
 30
0.0
 11
186.5588235294118
 21
154.7
 31
0.0
  0
LINE
  5
F6
330
1F
100
AcDbEntity
  8
1
  6
Continuous
 62
     4
100
AcDbLine
 10
187.0882352941177
 20
156.3
 30
0.0
 11
186.7352941176471
 21
155.6
 31
0.0
  0
LINE
  5
F7
330
1F
100
AcDbEntity
  8
1
  6
Continuous
 62
     4
100
AcDbLine
 10
187.4411764705882
 20
157.0
 30
0.0
 11
187.0882352941177
 21
156.3
 31
0.0
  0
LINE
  5
F8
330
1F
100
AcDbEntity
  8
1
  6
Continuous
 62
     4
100
AcDbLine
 10
185.6764705882353
 20
157.0
 30
0.0
 11
187.4411764705882
 21
157.0
 31
0.0
  0
LINE
  5
F9
330
1F
100
AcDbEntity
  8
1
  6
Continuous
 62
     4
100
AcDbLine
 10
184.7941176470588
 20
157.0
 30
0.0
 11
184.7941176470588
 21
154.0
 31
0.0
  0
LINE
  5
FA
330
1F
100
AcDbEntity
  8
1
  6
Continuous
 62
     4
100
AcDbLine
 10
184.3529411764706
 20
156.7
 30
0.0
 11
184.7941176470588
 21
157.0
 31
0.0
  0
LINE
  5
FB
330
1F
100
AcDbEntity
  8
1
  6
Continuous
 62
     4
100
AcDbLine
 10
183.4705882352941
 20
157.0
 30
0.0
 11
183.4705882352941
 21
154.0
 31
0.0
  0
LINE
  5
FC
330
1F
100
AcDbEntity
  8
1
  6
Continuous
 62
     4
100
AcDbLine
 10
183.0294117647059
 20
156.7
 30
0.0
 11
183.4705882352941
 21
157.0
 31
0.0
  0
LINE
  5
FD
330
1F
100
AcDbEntity
  8
1
  6
Continuous
 62
     4
100
AcDbLine
 10
181.7058823529412
 20
156.8
 30
0.0
 11
181.1764705882353
 21
157.0
 31
0.0
  0
LINE
  5
FE
330
1F
100
AcDbEntity
  8
1
  6
Continuous
 62
     4
100
AcDbLine
 10
182.0588235294118
 20
156.3
 30
0.0
 11
181.7058823529412
 21
156.8
 31
0.0
  0
LINE
  5
FF
330
1F
100
AcDbEntity
  8
1
  6
Continuous
 62
     4
100
AcDbLine
 10
182.1470588235294
 20
155.5
 30
0.0
 11
182.0588235294118
 21
156.3
 31
0.0
  0
LINE
  5
100
330
1F
100
AcDbEntity
  8
1
  6
Continuous
 62
     4
100
AcDbLine
 10
182.0588235294118
 20
154.7
 30
0.0
 11
182.1470588235294
 21
155.5
 31
0.0
  0
LINE
  5
101
330
1F
100
AcDbEntity
  8
1
  6
Continuous
 62
     4
100
AcDbLine
 10
181.7058823529412
 20
154.2
 30
0.0
 11
182.0588235294118
 21
154.7
 31
0.0
  0
LINE
  5
102
330
1F
100
AcDbEntity
  8
1
  6
Continuous
 62
     4
100
AcDbLine
 10
181.1764705882353
 20
154.0
 30
0.0
 11
181.7058823529412
 21
154.2
 31
0.0
  0
LINE
  5
103
330
1F
100
AcDbEntity
  8
1
  6
Continuous
 62
     4
100
AcDbLine
 10
180.6470588235294
 20
154.2
 30
0.0
 11
181.1764705882353
 21
154.0
 31
0.0
  0
LINE
  5
104
330
1F
100
AcDbEntity
  8
1
  6
Continuous
 62
     4
100
AcDbLine
 10
180.3823529411765
 20
154.7
 30
0.0
 11
180.6470588235294
 21
154.2
 31
0.0
  0
LINE
  5
105
330
1F
100
AcDbEntity
  8
1
  6
Continuous
 62
     4
100
AcDbLine
 10
180.2058823529412
 20
155.5
 30
0.0
 11
180.3823529411765
 21
154.7
 31
0.0
  0
LINE
  5
106
330
1F
100
AcDbEntity
  8
1
  6
Continuous
 62
     4
100
AcDbLine
 10
180.3823529411765
 20
156.3
 30
0.0
 11
180.2058823529412
 21
155.5
 31
0.0
  0
LINE
  5
107
330
1F
100
AcDbEntity
  8
1
  6
Continuous
 62
     4
100
AcDbLine
 10
180.6470588235294
 20
156.8
 30
0.0
 11
180.3823529411765
 21
156.3
 31
0.0
  0
LINE
  5
108
330
1F
100
AcDbEntity
  8
1
  6
Continuous
 62
     4
100
AcDbLine
 10
181.1764705882353
 20
157.0
 30
0.0
 11
180.6470588235294
 21
156.8
 31
0.0
  0
LINE
  5
109
330
1F
100
AcDbEntity
  8
1
  6
Continuous
 62
     4
100
AcDbLine
 10
176.5
 20
154.0
 30
0.0
 11
179.3235294117647
 21
154.0
 31
0.0
  0
LINE
  5
10A
330
1F
100
AcDbEntity
  8
1
  6
Continuous
 62
     4
100
AcDbLine
 10
175.1764705882353
 20
156.8
 30
0.0
 11
174.6470588235294
 21
157.0
 31
0.0
  0
LINE
  5
10B
330
1F
100
AcDbEntity
  8
1
  6
Continuous
 62
     4
100
AcDbLine
 10
175.5294117647059
 20
156.3
 30
0.0
 11
175.1764705882353
 21
156.8
 31
0.0
  0
LINE
  5
10C
330
1F
100
AcDbEntity
  8
1
  6
Continuous
 62
     4
100
AcDbLine
 10
175.6176470588235
 20
155.5
 30
0.0
 11
175.5294117647059
 21
156.3
 31
0.0
  0
LINE
  5
10D
330
1F
100
AcDbEntity
  8
1
  6
Continuous
 62
     4
100
AcDbLine
 10
175.5294117647059
 20
154.7
 30
0.0
 11
175.6176470588235
 21
155.5
 31
0.0
  0
LINE
  5
10E
330
1F
100
AcDbEntity
  8
1
  6
Continuous
 62
     4
100
AcDbLine
 10
175.1764705882353
 20
154.2
 30
0.0
 11
175.5294117647059
 21
154.7
 31
0.0
  0
LINE
  5
10F
330
1F
100
AcDbEntity
  8
1
  6
Continuous
 62
     4
100
AcDbLine
 10
174.6470588235294
 20
154.0
 30
0.0
 11
175.1764705882353
 21
154.2
 31
0.0
  0
LINE
  5
110
330
1F
100
AcDbEntity
  8
1
  6
Continuous
 62
     4
100
AcDbLine
 10
174.1176470588235
 20
154.2
 30
0.0
 11
174.6470588235294
 21
154.0
 31
0.0
  0
LINE
  5
111
330
1F
100
AcDbEntity
  8
1
  6
Continuous
 62
     4
100
AcDbLine
 10
173.8529411764706
 20
154.7
 30
0.0
 11
174.1176470588235
 21
154.2
 31
0.0
  0
LINE
  5
112
330
1F
100
AcDbEntity
  8
1
  6
Continuous
 62
     4
100
AcDbLine
 10
173.6764705882353
 20
155.5
 30
0.0
 11
173.8529411764706
 21
154.7
 31
0.0
  0
LINE
  5
113
330
1F
100
AcDbEntity
  8
1
  6
Continuous
 62
     4
100
AcDbLine
 10
173.8529411764706
 20
156.3
 30
0.0
 11
173.6764705882353
 21
155.5
 31
0.0
  0
LINE
  5
114
330
1F
100
AcDbEntity
  8
1
  6
Continuous
 62
     4
100
AcDbLine
 10
174.1176470588235
 20
156.8
 30
0.0
 11
173.8529411764706
 21
156.3
 31
0.0
  0
LINE
  5
115
330
1F
100
AcDbEntity
  8
1
  6
Continuous
 62
     4
100
AcDbLine
 10
174.6470588235294
 20
157.0
 30
0.0
 11
174.1176470588235
 21
156.8
 31
0.0
  0
LINE
  5
116
330
1F
100
AcDbEntity
  8
1
  6
Continuous
 62
     4
100
AcDbLine
 10
170.8529411764706
 20
154.0
 30
0.0
 11
172.7941176470588
 21
154.0
 31
0.0
  0
LINE
  5
117
330
1F
100
AcDbEntity
  8
1
  6
Continuous
 62
     4
100
AcDbLine
 10
171.0294117647059
 20
154.5
 30
0.0
 11
170.8529411764706
 21
154.0
 31
0.0
  0
LINE
  5
118
330
1F
100
AcDbEntity
  8
1
  6
Continuous
 62
     4
100
AcDbLine
 10
171.2058823529412
 20
154.8
 30
0.0
 11
171.0294117647059
 21
154.5
 31
0.0
  0
LINE
  5
119
330
1F
100
AcDbEntity
  8
1
  6
Continuous
 62
     4
100
AcDbLine
 10
171.5588235294118
 20
155.1
 30
0.0
 11
171.2058823529412
 21
154.8
 31
0.0
  0
LINE
  5
11A
330
1F
100
AcDbEntity
  8
1
  6
Continuous
 62
     4
100
AcDbLine
 10
171.9117647058824
 20
155.3
 30
0.0
 11
171.5588235294118
 21
155.1
 31
0.0
  0
LINE
  5
11B
330
1F
100
AcDbEntity
  8
1
  6
Continuous
 62
     4
100
AcDbLine
 10
172.3529411764706
 20
155.6
 30
0.0
 11
171.9117647058824
 21
155.3
 31
0.0
  0
LINE
  5
11C
330
1F
100
AcDbEntity
  8
1
  6
Continuous
 62
     4
100
AcDbLine
 10
172.6176470588235
 20
156.0
 30
0.0
 11
172.3529411764706
 21
155.6
 31
0.0
  0
LINE
  5
11D
330
1F
100
AcDbEntity
  8
1
  6
Continuous
 62
     4
100
AcDbLine
 10
172.7058823529412
 20
156.4
 30
0.0
 11
172.6176470588235
 21
156.0
 31
0.0
  0
LINE
  5
11E
330
1F
100
AcDbEntity
  8
1
  6
Continuous
 62
     4
100
AcDbLine
 10
172.3529411764706
 20
156.8
 30
0.0
 11
172.7058823529412
 21
156.4
 31
0.0
  0
LINE
  5
11F
330
1F
100
AcDbEntity
  8
1
  6
Continuous
 62
     4
100
AcDbLine
 10
171.8235294117647
 20
157.0
 30
0.0
 11
172.3529411764706
 21
156.8
 31
0.0
  0
LINE
  5
120
330
1F
100
AcDbEntity
  8
1
  6
Continuous
 62
     4
100
AcDbLine
 10
171.2941176470588
 20
156.8
 30
0.0
 11
171.8235294117647
 21
157.0
 31
0.0
  0
LINE
  5
121
330
1F
100
AcDbEntity
  8
1
  6
Continuous
 62
     4
100
AcDbLine
 10
170.9411764705882
 20
156.4
 30
0.0
 11
171.2941176470588
 21
156.8
 31
0.0
  0
LINE
  5
122
330
1F
100
AcDbEntity
  8
1
  6
Continuous
 62
     4
100
AcDbLine
 10
167.1470588235294
 20
154.0
 30
0.0
 11
169.9705882352941
 21
154.0
 31
0.0
  0
LINE
  5
123
330
1F
100
AcDbEntity
  8
1
  6
Continuous
 62
     4
100
AcDbLine
 10
166.0882352941177
 20
154.4
 30
0.0
 11
166.2647058823529
 21
154.7
 31
0.0
  0
LINE
  5
124
330
1F
100
AcDbEntity
  8
1
  6
Continuous
 62
     4
100
AcDbLine
 10
165.735294117647
 20
154.1
 30
0.0
 11
166.0882352941177
 21
154.4
 31
0.0
  0
LINE
  5
125
330
1F
100
AcDbEntity
  8
1
  6
Continuous
 62
     4
100
AcDbLine
 10
165.2941176470588
 20
154.0
 30
0.0
 11
165.735294117647
 21
154.1
 31
0.0
  0
LINE
  5
126
330
1F
100
AcDbEntity
  8
1
  6
Continuous
 62
     4
100
AcDbLine
 10
164.7647058823529
 20
154.2
 30
0.0
 11
165.2941176470588
 21
154.0
 31
0.0
  0
LINE
  5
127
330
1F
100
AcDbEntity
  8
1
  6
Continuous
 62
     4
100
AcDbLine
 10
164.5
 20
154.8
 30
0.0
 11
164.7647058823529
 21
154.2
 31
0.0
  0
LINE
  5
128
330
1F
100
AcDbEntity
  8
1
  6
Continuous
 62
     4
100
AcDbLine
 10
164.4117647058824
 20
155.5
 30
0.0
 11
164.5
 21
154.8
 31
0.0
  0
LINE
  5
129
330
1F
100
AcDbEntity
  8
1
  6
Continuous
 62
     4
100
AcDbLine
 10
164.5
 20
156.2
 30
0.0
 11
164.4117647058824
 21
155.5
 31
0.0
  0
LINE
  5
12A
330
1F
100
AcDbEntity
  8
1
  6
Continuous
 62
     4
100
AcDbLine
 10
164.7647058823529
 20
156.7
 30
0.0
 11
164.5
 21
156.2
 31
0.0
  0
LINE
  5
12B
330
1F
100
AcDbEntity
  8
1
  6
Continuous
 62
     4
100
AcDbLine
 10
165.2941176470588
 20
157.0
 30
0.0
 11
164.7647058823529
 21
156.7
 31
0.0
  0
LINE
  5
12C
330
1F
100
AcDbEntity
  8
1
  6
Continuous
 62
     4
100
AcDbLine
 10
165.735294117647
 20
156.9
 30
0.0
 11
165.2941176470588
 21
157.0
 31
0.0
  0
LINE
  5
12D
330
1F
100
AcDbEntity
  8
1
  6
Continuous
 62
     4
100
AcDbLine
 10
166.0
 20
156.7
 30
0.0
 11
165.735294117647
 21
156.9
 31
0.0
  0
LINE
  5
12E
330
1F
100
AcDbEntity
  8
1
  6
Continuous
 62
     4
100
AcDbLine
 10
166.2647058823529
 20
156.4
 30
0.0
 11
166.0
 21
156.7
 31
0.0
  0
LINE
  5
12F
330
1F
100
AcDbEntity
  8
1
  6
Continuous
 62
     4
100
AcDbLine
 10
161.9411764705882
 20
155.5
 30
0.0
 11
163.5294117647059
 21
155.5
 31
0.0
  0
LINE
  5
130
330
1F
100
AcDbEntity
  8
1
  6
Continuous
 62
     4
100
AcDbLine
 10
159.8235294117647
 20
157.0
 30
0.0
 11
160.5294117647059
 21
157.0
 31
0.0
  0
LINE
  5
131
330
1F
100
AcDbEntity
  8
1
  6
Continuous
 62
     4
100
AcDbLine
 10
160.5294117647059
 20
157.0
 30
0.0
 11
161.0588235294117
 21
157.0
 31
0.0
  0
LINE
  5
132
330
1F
100
AcDbEntity
  8
1
  6
Continuous
 62
     4
100
AcDbLine
 10
160.5294117647059
 20
154.0
 30
0.0
 11
159.2941176470588
 21
154.0
 31
0.0
  0
LINE
  5
133
330
1F
100
AcDbEntity
  8
1
  6
Continuous
 62
     4
100
AcDbLine
 10
160.5294117647059
 20
157.0
 30
0.0
 11
160.5294117647059
 21
154.0
 31
0.0
  0
LINE
  5
134
330
1F
100
AcDbEntity
  8
1
  6
Continuous
 62
     4
100
AcDbLine
 10
159.2941176470588
 20
157.0
 30
0.0
 11
159.8235294117647
 21
157.0
 31
0.0
  0
LINE
  5
135
330
1F
100
AcDbEntity
  8
1
  6
Continuous
 62
     4
100
AcDbLine
 10
159.8235294117647
 20
157.0
 30
0.0
 11
159.8235294117647
 21
154.0
 31
0.0
  0
LINE
  5
136
330
1F
100
AcDbEntity
  8
1
  6
Continuous
 62
     4
100
AcDbLine
 10
161.0588235294117
 20
154.0
 30
0.0
 11
160.5294117647059
 21
154.0
 31
0.0
  0
LINE
  5
137
330
1F
100
AcDbEntity
  8
1
  6
Continuous
 62
     4
100
AcDbLine
 10
157.6176470588235
 20
154.1
 30
0.0
 11
156.6470588235294
 21
154.1
 31
0.0
  0
LINE
  5
138
330
1F
100
AcDbEntity
  8
1
  6
Continuous
 62
     4
100
AcDbLine
 10
158.0588235294118
 20
154.3
 30
0.0
 11
157.6176470588235
 21
154.1
 31
0.0
  0
LINE
  5
139
330
1F
100
AcDbEntity
  8
1
  6
Continuous
 62
     4
100
AcDbLine
 10
158.3235294117647
 20
154.9
 30
0.0
 11
158.0588235294118
 21
154.3
 31
0.0
  0
LINE
  5
13A
330
1F
100
AcDbEntity
  8
1
  6
Continuous
 62
     4
100
AcDbLine
 10
158.4117647058824
 20
155.5
 30
0.0
 11
158.3235294117647
 21
154.9
 31
0.0
  0
LINE
  5
13B
330
1F
100
AcDbEntity
  8
1
  6
Continuous
 62
     4
100
AcDbLine
 10
158.3235294117647
 20
156.2
 30
0.0
 11
158.4117647058824
 21
155.5
 31
0.0
  0
LINE
  5
13C
330
1F
100
AcDbEntity
  8
1
  6
Continuous
 62
     4
100
AcDbLine
 10
158.0588235294118
 20
156.7
 30
0.0
 11
158.3235294117647
 21
156.2
 31
0.0
  0
LINE
  5
13D
330
1F
100
AcDbEntity
  8
1
  6
Continuous
 62
     4
100
AcDbLine
 10
157.6176470588235
 20
156.9
 30
0.0
 11
158.0588235294118
 21
156.7
 31
0.0
  0
LINE
  5
13E
330
1F
100
AcDbEntity
  8
1
  6
Continuous
 62
     4
100
AcDbLine
 10
156.6470588235294
 20
156.9
 30
0.0
 11
157.6176470588235
 21
156.9
 31
0.0
  0
LINE
  5
13F
330
1F
100
AcDbEntity
  8
1
  6
Continuous
 62
     4
100
AcDbLine
 10
156.6470588235294
 20
154.1
 30
0.0
 11
156.6470588235294
 21
156.9
 31
0.0
  0
LINE
  5
140
330
1F
100
AcDbEntity
  8
1
  6
Continuous
 62
     4
100
AcDbLine
 10
155.0588235294118
 20
154.0
 30
0.0
 11
154.0
 21
154.0
 31
0.0
  0
LINE
  5
141
330
1F
100
AcDbEntity
  8
1
  6
Continuous
 62
     4
100
AcDbLine
 10
155.5882352941177
 20
154.2
 30
0.0
 11
155.0588235294118
 21
154.0
 31
0.0
  0
LINE
  5
142
330
1F
100
AcDbEntity
  8
1
  6
Continuous
 62
     4
100
AcDbLine
 10
155.7647058823529
 20
154.7
 30
0.0
 11
155.5882352941177
 21
154.2
 31
0.0
  0
LINE
  5
143
330
1F
100
AcDbEntity
  8
1
  6
Continuous
 62
     4
100
AcDbLine
 10
155.5882352941177
 20
155.2
 30
0.0
 11
155.7647058823529
 21
154.7
 31
0.0
  0
LINE
  5
144
330
1F
100
AcDbEntity
  8
1
  6
Continuous
 62
     4
100
AcDbLine
 10
155.0588235294118
 20
155.4
 30
0.0
 11
155.5882352941177
 21
155.2
 31
0.0
  0
LINE
  5
145
330
1F
100
AcDbEntity
  8
1
  6
Continuous
 62
     4
100
AcDbLine
 10
154.0
 20
155.4
 30
0.0
 11
155.0588235294118
 21
155.4
 31
0.0
  0
LINE
  5
146
330
1F
100
AcDbEntity
  8
1
  6
Continuous
 62
     4
100
AcDbLine
 10
155.0588235294118
 20
155.4
 30
0.0
 11
154.0
 21
155.4
 31
0.0
  0
LINE
  5
147
330
1F
100
AcDbEntity
  8
1
  6
Continuous
 62
     4
100
AcDbLine
 10
155.5
 20
155.7
 30
0.0
 11
155.0588235294118
 21
155.4
 31
0.0
  0
LINE
  5
148
330
1F
100
AcDbEntity
  8
1
  6
Continuous
 62
     4
100
AcDbLine
 10
155.5882352941177
 20
156.1
 30
0.0
 11
155.5
 21
155.7
 31
0.0
  0
LINE
  5
149
330
1F
100
AcDbEntity
  8
1
  6
Continuous
 62
     4
100
AcDbLine
 10
155.5
 20
156.6
 30
0.0
 11
155.5882352941177
 21
156.1
 31
0.0
  0
LINE
  5
14A
330
1F
100
AcDbEntity
  8
1
  6
Continuous
 62
     4
100
AcDbLine
 10
155.0588235294118
 20
156.8
 30
0.0
 11
155.5
 21
156.6
 31
0.0
  0
LINE
  5
14B
330
1F
100
AcDbEntity
  8
1
  6
Continuous
 62
     4
100
AcDbLine
 10
154.0
 20
156.8
 30
0.0
 11
155.0588235294118
 21
156.8
 31
0.0
  0
LINE
  5
14C
330
1F
100
AcDbEntity
  8
1
  6
Continuous
 62
     4
100
AcDbLine
 10
154.0
 20
154.0
 30
0.0
 11
154.0
 21
156.8
 31
0.0
  0
LINE
  5
14D
330
1F
100
AcDbEntity
  8
1
  6
Continuous
 62
     4
100
AcDbLine
 10
170.1764705882353
 20
168.0
 30
0.0
 11
172.1176470588235
 21
168.0
 31
0.0
  0
LINE
  5
14E
330
1F
100
AcDbEntity
  8
1
  6
Continuous
 62
     4
100
AcDbLine
 10
170.3529411764706
 20
168.5
 30
0.0
 11
170.1764705882353
 21
168.0
 31
0.0
  0
LINE
  5
14F
330
1F
100
AcDbEntity
  8
1
  6
Continuous
 62
     4
100
AcDbLine
 10
170.5294117647059
 20
168.8
 30
0.0
 11
170.3529411764706
 21
168.5
 31
0.0
  0
LINE
  5
150
330
1F
100
AcDbEntity
  8
1
  6
Continuous
 62
     4
100
AcDbLine
 10
170.8823529411765
 20
169.1
 30
0.0
 11
170.5294117647059
 21
168.8
 31
0.0
  0
LINE
  5
151
330
1F
100
AcDbEntity
  8
1
  6
Continuous
 62
     4
100
AcDbLine
 10
171.2352941176471
 20
169.3
 30
0.0
 11
170.8823529411765
 21
169.1
 31
0.0
  0
LINE
  5
152
330
1F
100
AcDbEntity
  8
1
  6
Continuous
 62
     4
100
AcDbLine
 10
171.6764705882353
 20
169.6
 30
0.0
 11
171.2352941176471
 21
169.3
 31
0.0
  0
LINE
  5
153
330
1F
100
AcDbEntity
  8
1
  6
Continuous
 62
     4
100
AcDbLine
 10
171.9411764705882
 20
170.0
 30
0.0
 11
171.6764705882353
 21
169.6
 31
0.0
  0
LINE
  5
154
330
1F
100
AcDbEntity
  8
1
  6
Continuous
 62
     4
100
AcDbLine
 10
172.0294117647059
 20
170.4
 30
0.0
 11
171.9411764705882
 21
170.0
 31
0.0
  0
LINE
  5
155
330
1F
100
AcDbEntity
  8
1
  6
Continuous
 62
     4
100
AcDbLine
 10
171.6764705882353
 20
170.8
 30
0.0
 11
172.0294117647059
 21
170.4
 31
0.0
  0
LINE
  5
156
330
1F
100
AcDbEntity
  8
1
  6
Continuous
 62
     4
100
AcDbLine
 10
171.1470588235294
 20
171.0
 30
0.0
 11
171.6764705882353
 21
170.8
 31
0.0
  0
LINE
  5
157
330
1F
100
AcDbEntity
  8
1
  6
Continuous
 62
     4
100
AcDbLine
 10
170.6176470588235
 20
170.8
 30
0.0
 11
171.1470588235294
 21
171.0
 31
0.0
  0
LINE
  5
158
330
1F
100
AcDbEntity
  8
1
  6
Continuous
 62
     4
100
AcDbLine
 10
170.264705882353
 20
170.4
 30
0.0
 11
170.6176470588235
 21
170.8
 31
0.0
  0
LINE
  5
159
330
1F
100
AcDbEntity
  8
1
  6
Continuous
 62
     4
100
AcDbLine
 10
169.2941176470588
 20
170.7
 30
0.0
 11
167.4411764705882
 21
168.5
 31
0.0
  0
LINE
  5
15A
330
1F
100
AcDbEntity
  8
1
  6
Continuous
 62
     4
100
AcDbLine
 10
166.5588235294118
 20
171.0
 30
0.0
 11
166.5588235294118
 21
168.0
 31
0.0
  0
LINE
  5
15B
330
1F
100
AcDbEntity
  8
1
  6
Continuous
 62
     4
100
AcDbLine
 10
166.1176470588235
 20
170.7
 30
0.0
 11
166.5588235294118
 21
171.0
 31
0.0
  0
LINE
  5
15C
330
1F
100
AcDbEntity
  8
1
  6
Continuous
 62
     4
100
AcDbLine
 10
165.0588235294118
 20
168.3
 30
0.0
 11
165.2352941176471
 21
168.6
 31
0.0
  0
LINE
  5
15D
330
1F
100
AcDbEntity
  8
1
  6
Continuous
 62
     4
100
AcDbLine
 10
164.7941176470588
 20
168.1
 30
0.0
 11
165.0588235294118
 21
168.3
 31
0.0
  0
LINE
  5
15E
330
1F
100
AcDbEntity
  8
1
  6
Continuous
 62
     4
100
AcDbLine
 10
164.4411764705883
 20
168.0
 30
0.0
 11
164.7941176470588
 21
168.1
 31
0.0
  0
LINE
  5
15F
330
1F
100
AcDbEntity
  8
1
  6
Continuous
 62
     4
100
AcDbLine
 10
164.1764705882353
 20
168.0
 30
0.0
 11
164.4411764705883
 21
168.0
 31
0.0
  0
LINE
  5
160
330
1F
100
AcDbEntity
  8
1
  6
Continuous
 62
     4
100
AcDbLine
 10
164.0
 20
168.1
 30
0.0
 11
164.1764705882353
 21
168.0
 31
0.0
  0
LINE
  5
161
330
1F
100
AcDbEntity
  8
1
  6
Continuous
 62
     4
100
AcDbLine
 10
163.9117647058824
 20
168.3
 30
0.0
 11
164.0
 21
168.1
 31
0.0
  0
LINE
  5
162
330
1F
100
AcDbEntity
  8
1
  6
Continuous
 62
     4
100
AcDbLine
 10
163.8235294117647
 20
168.6
 30
0.0
 11
163.9117647058824
 21
168.3
 31
0.0
  0
LINE
  5
163
330
1F
100
AcDbEntity
  8
1
  6
Continuous
 62
     4
100
AcDbLine
 10
163.7352941176471
 20
169.0
 30
0.0
 11
163.8235294117647
 21
168.6
 31
0.0
  0
LINE
  5
164
330
1F
100
AcDbEntity
  8
1
  6
Continuous
 62
     4
100
AcDbLine
 10
163.8235294117647
 20
169.5
 30
0.0
 11
163.7352941176471
 21
169.0
 31
0.0
  0
LINE
  5
165
330
1F
100
AcDbEntity
  8
1
  6
Continuous
 62
     4
100
AcDbLine
 10
163.9117647058824
 20
169.8
 30
0.0
 11
163.8235294117647
 21
169.5
 31
0.0
  0
LINE
  5
166
330
1F
100
AcDbEntity
  8
1
  6
Continuous
 62
     4
100
AcDbLine
 10
164.0882352941177
 20
170.1
 30
0.0
 11
163.9117647058824
 21
169.8
 31
0.0
  0
LINE
  5
167
330
1F
100
AcDbEntity
  8
1
  6
Continuous
 62
     4
100
AcDbLine
 10
164.4411764705883
 20
170.2
 30
0.0
 11
164.0882352941177
 21
170.1
 31
0.0
  0
LINE
  5
168
330
1F
100
AcDbEntity
  8
1
  6
Continuous
 62
     4
100
AcDbLine
 10
164.7941176470588
 20
170.1
 30
0.0
 11
164.4411764705883
 21
170.2
 31
0.0
  0
LINE
  5
169
330
1F
100
AcDbEntity
  8
1
  6
Continuous
 62
     4
100
AcDbLine
 10
165.0588235294118
 20
169.9
 30
0.0
 11
164.7941176470588
 21
170.1
 31
0.0
  0
LINE
  5
16A
330
1F
100
AcDbEntity
  8
1
  6
Continuous
 62
     4
100
AcDbLine
 10
165.2352941176471
 20
169.7
 30
0.0
 11
165.0588235294118
 21
169.9
 31
0.0
  0
LINE
  5
16B
330
1F
100
AcDbEntity
  8
1
  6
Continuous
 62
     4
100
AcDbLine
 10
161.0
 20
169.4
 30
0.0
 11
161.0
 21
171.0
 31
0.0
  0
LINE
  5
16C
330
1F
100
AcDbEntity
  8
1
  6
Continuous
 62
     4
100
AcDbLine
 10
162.1470588235294
 20
169.4
 30
0.0
 11
162.8529411764706
 21
168.0
 31
0.0
  0
LINE
  5
16D
330
1F
100
AcDbEntity
  8
1
  6
Continuous
 62
     4
100
AcDbLine
 10
162.1470588235294
 20
169.4
 30
0.0
 11
161.0
 21
169.4
 31
0.0
  0
LINE
  5
16E
330
1F
100
AcDbEntity
  8
1
  6
Continuous
 62
     4
100
AcDbLine
 10
162.5
 20
169.6
 30
0.0
 11
162.1470588235294
 21
169.4
 31
0.0
  0
LINE
  5
16F
330
1F
100
AcDbEntity
  8
1
  6
Continuous
 62
     4
100
AcDbLine
 10
162.6764705882353
 20
169.8
 30
0.0
 11
162.5
 21
169.6
 31
0.0
  0
LINE
  5
170
330
1F
100
AcDbEntity
  8
1
  6
Continuous
 62
     4
100
AcDbLine
 10
162.7647058823529
 20
170.2
 30
0.0
 11
162.6764705882353
 21
169.8
 31
0.0
  0
LINE
  5
171
330
1F
100
AcDbEntity
  8
1
  6
Continuous
 62
     4
100
AcDbLine
 10
162.6764705882353
 20
170.5
 30
0.0
 11
162.7647058823529
 21
170.2
 31
0.0
  0
LINE
  5
172
330
1F
100
AcDbEntity
  8
1
  6
Continuous
 62
     4
100
AcDbLine
 10
162.5
 20
170.8
 30
0.0
 11
162.6764705882353
 21
170.5
 31
0.0
  0
LINE
  5
173
330
1F
100
AcDbEntity
  8
1
  6
Continuous
 62
     4
100
AcDbLine
 10
162.1470588235294
 20
171.0
 30
0.0
 11
162.5
 21
170.8
 31
0.0
  0
LINE
  5
174
330
1F
100
AcDbEntity
  8
1
  6
Continuous
 62
     4
100
AcDbLine
 10
161.0
 20
171.0
 30
0.0
 11
162.1470588235294
 21
171.0
 31
0.0
  0
LINE
  5
175
330
1F
100
AcDbEntity
  8
1
  6
Continuous
 62
     4
100
AcDbLine
 10
161.0
 20
168.0
 30
0.0
 11
161.0
 21
169.4
 31
0.0
  0
LINE
  5
176
330
1F
100
AcDbEntity
  8
1
  6
Continuous
 62
     4
100
AcDbLine
 10
214.6764705882353
 20
246.7
 30
0.0
 11
216.7941176470588
 21
246.7
 31
0.0
  0
LINE
  5
177
330
1F
100
AcDbEntity
  8
1
  6
Continuous
 62
     4
100
AcDbLine
 10
216.264705882353
 20
249.0
 30
0.0
 11
214.6764705882353
 21
246.7
 31
0.0
  0
LINE
  5
178
330
1F
100
AcDbEntity
  8
1
  6
Continuous
 62
     4
100
AcDbLine
 10
216.264705882353
 20
246.0
 30
0.0
 11
216.264705882353
 21
249.0
 31
0.0
  0
LINE
  5
179
330
1F
100
AcDbEntity
  8
1
  6
Continuous
 62
     4
100
AcDbLine
 10
213.7941176470588
 20
248.7
 30
0.0
 11
211.9411764705882
 21
246.5
 31
0.0
  0
LINE
  5
17A
330
1F
100
AcDbEntity
  8
1
  6
Continuous
 62
     4
100
AcDbLine
 10
209.2941176470588
 20
246.3
 30
0.0
 11
209.1176470588235
 21
246.5
 31
0.0
  0
LINE
  5
17B
330
1F
100
AcDbEntity
  8
1
  6
Continuous
 62
     4
100
AcDbLine
 10
209.6470588235294
 20
246.1
 30
0.0
 11
209.2941176470588
 21
246.3
 31
0.0
  0
LINE
  5
17C
330
1F
100
AcDbEntity
  8
1
  6
Continuous
 62
     4
100
AcDbLine
 10
210.0882352941177
 20
246.0
 30
0.0
 11
209.6470588235294
 21
246.1
 31
0.0
  0
LINE
  5
17D
330
1F
100
AcDbEntity
  8
1
  6
Continuous
 62
     4
100
AcDbLine
 10
210.6176470588235
 20
246.1
 30
0.0
 11
210.0882352941177
 21
246.0
 31
0.0
  0
LINE
  5
17E
330
1F
100
AcDbEntity
  8
1
  6
Continuous
 62
     4
100
AcDbLine
 10
210.8823529411765
 20
246.3
 30
0.0
 11
210.6176470588235
 21
246.1
 31
0.0
  0
LINE
  5
17F
330
1F
100
AcDbEntity
  8
1
  6
Continuous
 62
     4
100
AcDbLine
 10
211.0588235294118
 20
246.8
 30
0.0
 11
210.8823529411765
 21
246.3
 31
0.0
  0
LINE
  5
180
330
1F
100
AcDbEntity
  8
1
  6
Continuous
 62
     4
100
AcDbLine
 10
210.8823529411765
 20
247.3
 30
0.0
 11
211.0588235294118
 21
246.8
 31
0.0
  0
LINE
  5
181
330
1F
100
AcDbEntity
  8
1
  6
Continuous
 62
     4
100
AcDbLine
 10
210.4411764705882
 20
247.6
 30
0.0
 11
210.8823529411765
 21
247.3
 31
0.0
  0
LINE
  5
182
330
1F
100
AcDbEntity
  8
1
  6
Continuous
 62
     4
100
AcDbLine
 10
210.0
 20
247.6
 30
0.0
 11
210.4411764705882
 21
247.6
 31
0.0
  0
LINE
  5
183
330
1F
100
AcDbEntity
  8
1
  6
Continuous
 62
     4
100
AcDbLine
 10
210.4411764705882
 20
247.6
 30
0.0
 11
210.0
 21
247.6
 31
0.0
  0
LINE
  5
184
330
1F
100
AcDbEntity
  8
1
  6
Continuous
 62
     4
100
AcDbLine
 10
210.7941176470588
 20
247.8
 30
0.0
 11
210.4411764705882
 21
247.6
 31
0.0
  0
LINE
  5
185
330
1F
100
AcDbEntity
  8
1
  6
Continuous
 62
     4
100
AcDbLine
 10
210.9705882352941
 20
248.2
 30
0.0
 11
210.7941176470588
 21
247.8
 31
0.0
  0
LINE
  5
186
330
1F
100
AcDbEntity
  8
1
  6
Continuous
 62
     4
100
AcDbLine
 10
210.8823529411765
 20
248.5
 30
0.0
 11
210.9705882352941
 21
248.2
 31
0.0
  0
LINE
  5
187
330
1F
100
AcDbEntity
  8
1
  6
Continuous
 62
     4
100
AcDbLine
 10
210.6176470588235
 20
248.9
 30
0.0
 11
210.8823529411765
 21
248.5
 31
0.0
  0
LINE
  5
188
330
1F
100
AcDbEntity
  8
1
  6
Continuous
 62
     4
100
AcDbLine
 10
210.0882352941177
 20
249.0
 30
0.0
 11
210.6176470588235
 21
248.9
 31
0.0
  0
LINE
  5
189
330
1F
100
AcDbEntity
  8
1
  6
Continuous
 62
     4
100
AcDbLine
 10
209.5588235294118
 20
248.9
 30
0.0
 11
210.0882352941177
 21
249.0
 31
0.0
  0
LINE
  5
18A
330
1F
100
AcDbEntity
  8
1
  6
Continuous
 62
     4
100
AcDbLine
 10
209.2058823529412
 20
248.5
 30
0.0
 11
209.5588235294118
 21
248.9
 31
0.0
  0
LINE
  5
18B
330
1F
100
AcDbEntity
  8
1
  6
Continuous
 62
     4
100
AcDbLine
 10
208.0588235294118
 20
246.3
 30
0.0
 11
208.2352941176471
 21
246.6
 31
0.0
  0
LINE
  5
18C
330
1F
100
AcDbEntity
  8
1
  6
Continuous
 62
     4
100
AcDbLine
 10
207.7941176470588
 20
246.1
 30
0.0
 11
208.0588235294118
 21
246.3
 31
0.0
  0
LINE
  5
18D
330
1F
100
AcDbEntity
  8
1
  6
Continuous
 62
     4
100
AcDbLine
 10
207.4411764705883
 20
246.0
 30
0.0
 11
207.7941176470588
 21
246.1
 31
0.0
  0
LINE
  5
18E
330
1F
100
AcDbEntity
  8
1
  6
Continuous
 62
     4
100
AcDbLine
 10
207.1764705882353
 20
246.0
 30
0.0
 11
207.4411764705883
 21
246.0
 31
0.0
  0
LINE
  5
18F
330
1F
100
AcDbEntity
  8
1
  6
Continuous
 62
     4
100
AcDbLine
 10
207.0
 20
246.1
 30
0.0
 11
207.1764705882353
 21
246.0
 31
0.0
  0
LINE
  5
190
330
1F
100
AcDbEntity
  8
1
  6
Continuous
 62
     4
100
AcDbLine
 10
206.9117647058824
 20
246.3
 30
0.0
 11
207.0
 21
246.1
 31
0.0
  0
LINE
  5
191
330
1F
100
AcDbEntity
  8
1
  6
Continuous
 62
     4
100
AcDbLine
 10
206.8235294117647
 20
246.6
 30
0.0
 11
206.9117647058824
 21
246.3
 31
0.0
  0
LINE
  5
192
330
1F
100
AcDbEntity
  8
1
  6
Continuous
 62
     4
100
AcDbLine
 10
206.7352941176471
 20
247.0
 30
0.0
 11
206.8235294117647
 21
246.6
 31
0.0
  0
LINE
  5
193
330
1F
100
AcDbEntity
  8
1
  6
Continuous
 62
     4
100
AcDbLine
 10
206.8235294117647
 20
247.5
 30
0.0
 11
206.7352941176471
 21
247.0
 31
0.0
  0
LINE
  5
194
330
1F
100
AcDbEntity
  8
1
  6
Continuous
 62
     4
100
AcDbLine
 10
206.9117647058824
 20
247.8
 30
0.0
 11
206.8235294117647
 21
247.5
 31
0.0
  0
LINE
  5
195
330
1F
100
AcDbEntity
  8
1
  6
Continuous
 62
     4
100
AcDbLine
 10
207.0882352941177
 20
248.1
 30
0.0
 11
206.9117647058824
 21
247.8
 31
0.0
  0
LINE
  5
196
330
1F
100
AcDbEntity
  8
1
  6
Continuous
 62
     4
100
AcDbLine
 10
207.4411764705883
 20
248.2
 30
0.0
 11
207.0882352941177
 21
248.1
 31
0.0
  0
LINE
  5
197
330
1F
100
AcDbEntity
  8
1
  6
Continuous
 62
     4
100
AcDbLine
 10
207.7941176470588
 20
248.1
 30
0.0
 11
207.4411764705883
 21
248.2
 31
0.0
  0
LINE
  5
198
330
1F
100
AcDbEntity
  8
1
  6
Continuous
 62
     4
100
AcDbLine
 10
208.0588235294118
 20
247.9
 30
0.0
 11
207.7941176470588
 21
248.1
 31
0.0
  0
LINE
  5
199
330
1F
100
AcDbEntity
  8
1
  6
Continuous
 62
     4
100
AcDbLine
 10
208.2352941176471
 20
247.7
 30
0.0
 11
208.0588235294118
 21
247.9
 31
0.0
  0
LINE
  5
19A
330
1F
100
AcDbEntity
  8
1
  6
Continuous
 62
     4
100
AcDbLine
 10
204.0
 20
247.4
 30
0.0
 11
204.0
 21
249.0
 31
0.0
  0
LINE
  5
19B
330
1F
100
AcDbEntity
  8
1
  6
Continuous
 62
     4
100
AcDbLine
 10
205.1470588235294
 20
247.4
 30
0.0
 11
205.8529411764706
 21
246.0
 31
0.0
  0
LINE
  5
19C
330
1F
100
AcDbEntity
  8
1
  6
Continuous
 62
     4
100
AcDbLine
 10
205.1470588235294
 20
247.4
 30
0.0
 11
204.0
 21
247.4
 31
0.0
  0
LINE
  5
19D
330
1F
100
AcDbEntity
  8
1
  6
Continuous
 62
     4
100
AcDbLine
 10
205.5
 20
247.6
 30
0.0
 11
205.1470588235294
 21
247.4
 31
0.0
  0
LINE
  5
19E
330
1F
100
AcDbEntity
  8
1
  6
Continuous
 62
     4
100
AcDbLine
 10
205.6764705882353
 20
247.8
 30
0.0
 11
205.5
 21
247.6
 31
0.0
  0
LINE
  5
19F
330
1F
100
AcDbEntity
  8
1
  6
Continuous
 62
     4
100
AcDbLine
 10
205.7647058823529
 20
248.2
 30
0.0
 11
205.6764705882353
 21
247.8
 31
0.0
  0
LINE
  5
1A0
330
1F
100
AcDbEntity
  8
1
  6
Continuous
 62
     4
100
AcDbLine
 10
205.6764705882353
 20
248.5
 30
0.0
 11
205.7647058823529
 21
248.2
 31
0.0
  0
LINE
  5
1A1
330
1F
100
AcDbEntity
  8
1
  6
Continuous
 62
     4
100
AcDbLine
 10
205.5
 20
248.8
 30
0.0
 11
205.6764705882353
 21
248.5
 31
0.0
  0
LINE
  5
1A2
330
1F
100
AcDbEntity
  8
1
  6
Continuous
 62
     4
100
AcDbLine
 10
205.1470588235294
 20
249.0
 30
0.0
 11
205.5
 21
248.8
 31
0.0
  0
LINE
  5
1A3
330
1F
100
AcDbEntity
  8
1
  6
Continuous
 62
     4
100
AcDbLine
 10
204.0
 20
249.0
 30
0.0
 11
205.1470588235294
 21
249.0
 31
0.0
  0
LINE
  5
1A4
330
1F
100
AcDbEntity
  8
1
  6
Continuous
 62
     4
100
AcDbLine
 10
204.0
 20
246.0
 30
0.0
 11
204.0
 21
247.4
 31
0.0
  0
LINE
  5
1A5
330
1F
100
AcDbEntity
  8
1
  6
Continuous
 62
     4
100
AcDbLine
 10
86.67647058823529
 20
246.7
 30
0.0
 11
88.79411764705883
 21
246.7
 31
0.0
  0
LINE
  5
1A6
330
1F
100
AcDbEntity
  8
1
  6
Continuous
 62
     4
100
AcDbLine
 10
88.26470588235294
 20
249.0
 30
0.0
 11
86.67647058823529
 21
246.7
 31
0.0
  0
LINE
  5
1A7
330
1F
100
AcDbEntity
  8
1
  6
Continuous
 62
     4
100
AcDbLine
 10
88.26470588235294
 20
246.0
 30
0.0
 11
88.26470588235294
 21
249.0
 31
0.0
  0
LINE
  5
1A8
330
1F
100
AcDbEntity
  8
1
  6
Continuous
 62
     4
100
AcDbLine
 10
85.79411764705883
 20
248.7
 30
0.0
 11
83.94117647058823
 21
246.5
 31
0.0
  0
LINE
  5
1A9
330
1F
100
AcDbEntity
  8
1
  6
Continuous
 62
     4
100
AcDbLine
 10
81.29411764705883
 20
246.3
 30
0.0
 11
81.11764705882354
 21
246.5
 31
0.0
  0
LINE
  5
1AA
330
1F
100
AcDbEntity
  8
1
  6
Continuous
 62
     4
100
AcDbLine
 10
81.64705882352942
 20
246.1
 30
0.0
 11
81.29411764705883
 21
246.3
 31
0.0
  0
LINE
  5
1AB
330
1F
100
AcDbEntity
  8
1
  6
Continuous
 62
     4
100
AcDbLine
 10
82.08823529411765
 20
246.0
 30
0.0
 11
81.64705882352942
 21
246.1
 31
0.0
  0
LINE
  5
1AC
330
1F
100
AcDbEntity
  8
1
  6
Continuous
 62
     4
100
AcDbLine
 10
82.61764705882354
 20
246.1
 30
0.0
 11
82.08823529411765
 21
246.0
 31
0.0
  0
LINE
  5
1AD
330
1F
100
AcDbEntity
  8
1
  6
Continuous
 62
     4
100
AcDbLine
 10
82.88235294117648
 20
246.3
 30
0.0
 11
82.61764705882354
 21
246.1
 31
0.0
  0
LINE
  5
1AE
330
1F
100
AcDbEntity
  8
1
  6
Continuous
 62
     4
100
AcDbLine
 10
83.05882352941177
 20
246.8
 30
0.0
 11
82.88235294117648
 21
246.3
 31
0.0
  0
LINE
  5
1AF
330
1F
100
AcDbEntity
  8
1
  6
Continuous
 62
     4
100
AcDbLine
 10
82.88235294117648
 20
247.3
 30
0.0
 11
83.05882352941177
 21
246.8
 31
0.0
  0
LINE
  5
1B0
330
1F
100
AcDbEntity
  8
1
  6
Continuous
 62
     4
100
AcDbLine
 10
82.44117647058825
 20
247.6
 30
0.0
 11
82.88235294117648
 21
247.3
 31
0.0
  0
LINE
  5
1B1
330
1F
100
AcDbEntity
  8
1
  6
Continuous
 62
     4
100
AcDbLine
 10
82.0
 20
247.6
 30
0.0
 11
82.44117647058825
 21
247.6
 31
0.0
  0
LINE
  5
1B2
330
1F
100
AcDbEntity
  8
1
  6
Continuous
 62
     4
100
AcDbLine
 10
82.44117647058825
 20
247.6
 30
0.0
 11
82.0
 21
247.6
 31
0.0
  0
LINE
  5
1B3
330
1F
100
AcDbEntity
  8
1
  6
Continuous
 62
     4
100
AcDbLine
 10
82.79411764705883
 20
247.8
 30
0.0
 11
82.44117647058825
 21
247.6
 31
0.0
  0
LINE
  5
1B4
330
1F
100
AcDbEntity
  8
1
  6
Continuous
 62
     4
100
AcDbLine
 10
82.97058823529413
 20
248.2
 30
0.0
 11
82.79411764705883
 21
247.8
 31
0.0
  0
LINE
  5
1B5
330
1F
100
AcDbEntity
  8
1
  6
Continuous
 62
     4
100
AcDbLine
 10
82.88235294117648
 20
248.5
 30
0.0
 11
82.97058823529413
 21
248.2
 31
0.0
  0
LINE
  5
1B6
330
1F
100
AcDbEntity
  8
1
  6
Continuous
 62
     4
100
AcDbLine
 10
82.61764705882354
 20
248.9
 30
0.0
 11
82.88235294117648
 21
248.5
 31
0.0
  0
LINE
  5
1B7
330
1F
100
AcDbEntity
  8
1
  6
Continuous
 62
     4
100
AcDbLine
 10
82.08823529411765
 20
249.0
 30
0.0
 11
82.61764705882354
 21
248.9
 31
0.0
  0
LINE
  5
1B8
330
1F
100
AcDbEntity
  8
1
  6
Continuous
 62
     4
100
AcDbLine
 10
81.55882352941177
 20
248.9
 30
0.0
 11
82.08823529411765
 21
249.0
 31
0.0
  0
LINE
  5
1B9
330
1F
100
AcDbEntity
  8
1
  6
Continuous
 62
     4
100
AcDbLine
 10
81.20588235294119
 20
248.5
 30
0.0
 11
81.55882352941177
 21
248.9
 31
0.0
  0
LINE
  5
1BA
330
1F
100
AcDbEntity
  8
1
  6
Continuous
 62
     4
100
AcDbLine
 10
80.05882352941177
 20
246.3
 30
0.0
 11
80.23529411764706
 21
246.6
 31
0.0
  0
LINE
  5
1BB
330
1F
100
AcDbEntity
  8
1
  6
Continuous
 62
     4
100
AcDbLine
 10
79.79411764705883
 20
246.1
 30
0.0
 11
80.05882352941177
 21
246.3
 31
0.0
  0
LINE
  5
1BC
330
1F
100
AcDbEntity
  8
1
  6
Continuous
 62
     4
100
AcDbLine
 10
79.44117647058823
 20
246.0
 30
0.0
 11
79.79411764705883
 21
246.1
 31
0.0
  0
LINE
  5
1BD
330
1F
100
AcDbEntity
  8
1
  6
Continuous
 62
     4
100
AcDbLine
 10
79.17647058823529
 20
246.0
 30
0.0
 11
79.44117647058823
 21
246.0
 31
0.0
  0
LINE
  5
1BE
330
1F
100
AcDbEntity
  8
1
  6
Continuous
 62
     4
100
AcDbLine
 10
79.0
 20
246.1
 30
0.0
 11
79.17647058823529
 21
246.0
 31
0.0
  0
LINE
  5
1BF
330
1F
100
AcDbEntity
  8
1
  6
Continuous
 62
     4
100
AcDbLine
 10
78.91176470588235
 20
246.3
 30
0.0
 11
79.0
 21
246.1
 31
0.0
  0
LINE
  5
1C0
330
1F
100
AcDbEntity
  8
1
  6
Continuous
 62
     4
100
AcDbLine
 10
78.82352941176471
 20
246.6
 30
0.0
 11
78.91176470588235
 21
246.3
 31
0.0
  0
LINE
  5
1C1
330
1F
100
AcDbEntity
  8
1
  6
Continuous
 62
     4
100
AcDbLine
 10
78.73529411764706
 20
247.0
 30
0.0
 11
78.82352941176471
 21
246.6
 31
0.0
  0
LINE
  5
1C2
330
1F
100
AcDbEntity
  8
1
  6
Continuous
 62
     4
100
AcDbLine
 10
78.82352941176471
 20
247.5
 30
0.0
 11
78.73529411764706
 21
247.0
 31
0.0
  0
LINE
  5
1C3
330
1F
100
AcDbEntity
  8
1
  6
Continuous
 62
     4
100
AcDbLine
 10
78.91176470588235
 20
247.8
 30
0.0
 11
78.82352941176471
 21
247.5
 31
0.0
  0
LINE
  5
1C4
330
1F
100
AcDbEntity
  8
1
  6
Continuous
 62
     4
100
AcDbLine
 10
79.08823529411765
 20
248.1
 30
0.0
 11
78.91176470588235
 21
247.8
 31
0.0
  0
LINE
  5
1C5
330
1F
100
AcDbEntity
  8
1
  6
Continuous
 62
     4
100
AcDbLine
 10
79.44117647058823
 20
248.2
 30
0.0
 11
79.08823529411765
 21
248.1
 31
0.0
  0
LINE
  5
1C6
330
1F
100
AcDbEntity
  8
1
  6
Continuous
 62
     4
100
AcDbLine
 10
79.79411764705883
 20
248.1
 30
0.0
 11
79.44117647058823
 21
248.2
 31
0.0
  0
LINE
  5
1C7
330
1F
100
AcDbEntity
  8
1
  6
Continuous
 62
     4
100
AcDbLine
 10
80.05882352941177
 20
247.9
 30
0.0
 11
79.79411764705883
 21
248.1
 31
0.0
  0
LINE
  5
1C8
330
1F
100
AcDbEntity
  8
1
  6
Continuous
 62
     4
100
AcDbLine
 10
80.23529411764706
 20
247.7
 30
0.0
 11
80.05882352941177
 21
247.9
 31
0.0
  0
LINE
  5
1C9
330
1F
100
AcDbEntity
  8
1
  6
Continuous
 62
     4
100
AcDbLine
 10
76.0
 20
247.4
 30
0.0
 11
76.0
 21
249.0
 31
0.0
  0
LINE
  5
1CA
330
1F
100
AcDbEntity
  8
1
  6
Continuous
 62
     4
100
AcDbLine
 10
77.1470588235294
 20
247.4
 30
0.0
 11
77.8529411764706
 21
246.0
 31
0.0
  0
LINE
  5
1CB
330
1F
100
AcDbEntity
  8
1
  6
Continuous
 62
     4
100
AcDbLine
 10
77.1470588235294
 20
247.4
 30
0.0
 11
76.0
 21
247.4
 31
0.0
  0
LINE
  5
1CC
330
1F
100
AcDbEntity
  8
1
  6
Continuous
 62
     4
100
AcDbLine
 10
77.5
 20
247.6
 30
0.0
 11
77.1470588235294
 21
247.4
 31
0.0
  0
LINE
  5
1CD
330
1F
100
AcDbEntity
  8
1
  6
Continuous
 62
     4
100
AcDbLine
 10
77.67647058823529
 20
247.8
 30
0.0
 11
77.5
 21
247.6
 31
0.0
  0
LINE
  5
1CE
330
1F
100
AcDbEntity
  8
1
  6
Continuous
 62
     4
100
AcDbLine
 10
77.76470588235294
 20
248.2
 30
0.0
 11
77.67647058823529
 21
247.8
 31
0.0
  0
LINE
  5
1CF
330
1F
100
AcDbEntity
  8
1
  6
Continuous
 62
     4
100
AcDbLine
 10
77.67647058823529
 20
248.5
 30
0.0
 11
77.76470588235294
 21
248.2
 31
0.0
  0
LINE
  5
1D0
330
1F
100
AcDbEntity
  8
1
  6
Continuous
 62
     4
100
AcDbLine
 10
77.5
 20
248.8
 30
0.0
 11
77.67647058823529
 21
248.5
 31
0.0
  0
LINE
  5
1D1
330
1F
100
AcDbEntity
  8
1
  6
Continuous
 62
     4
100
AcDbLine
 10
77.1470588235294
 20
249.0
 30
0.0
 11
77.5
 21
248.8
 31
0.0
  0
LINE
  5
1D2
330
1F
100
AcDbEntity
  8
1
  6
Continuous
 62
     4
100
AcDbLine
 10
76.0
 20
249.0
 30
0.0
 11
77.1470588235294
 21
249.0
 31
0.0
  0
LINE
  5
1D3
330
1F
100
AcDbEntity
  8
1
  6
Continuous
 62
     4
100
AcDbLine
 10
76.0
 20
246.0
 30
0.0
 11
76.0
 21
247.4
 31
0.0
  0
LINE
  5
1D4
330
1F
100
AcDbEntity
  8
1
  6
Continuous
 62
     3
100
AcDbLine
 10
180.0000000000003
 20
520.3363104734533
 30
0.0
 11
180.0000000000003
 21
529.6636895265444
 31
0.0
  0
LINE
  5
1D5
330
1F
100
AcDbEntity
  8
1
  6
Continuous
 62
     3
100
AcDbLine
 10
195.8452994616212
 20
520.3363104734533
 30
0.0
 11
180.0000000000003
 21
520.3363104734533
 31
0.0
  0
LINE
  5
1D6
330
1F
100
AcDbEntity
  8
1
  6
Continuous
 62
     3
100
AcDbLine
 10
195.8452994616212
 20
529.6636895265444
 30
0.0
 11
195.8452994616212
 21
520.3363104734533
 31
0.0
  0
LINE
  5
1D7
330
1F
100
AcDbEntity
  8
1
  6
Continuous
 62
     3
100
AcDbLine
 10
180.0000000000003
 20
529.6636895265444
 30
0.0
 11
195.8452994616212
 21
529.6636895265444
 31
0.0
  0
LINE
  5
1D8
330
1F
100
AcDbEntity
  8
1
  6
Continuous
 62
     3
100
AcDbLine
 10
180.0000000000003
 20
534.336310473458
 30
0.0
 11
180.0000000000003
 21
543.6636895265444
 31
0.0
  0
LINE
  5
1D9
330
1F
100
AcDbEntity
  8
1
  6
Continuous
 62
     3
100
AcDbLine
 10
195.8452994616212
 20
534.336310473458
 30
0.0
 11
180.0000000000003
 21
534.336310473458
 31
0.0
  0
LINE
  5
1DA
330
1F
100
AcDbEntity
  8
1
  6
Continuous
 62
     3
100
AcDbLine
 10
195.8452994616212
 20
543.6636895265444
 30
0.0
 11
195.8452994616212
 21
534.336310473458
 31
0.0
  0
LINE
  5
1DB
330
1F
100
AcDbEntity
  8
1
  6
Continuous
 62
     3
100
AcDbLine
 10
180.0000000000003
 20
543.6636895265444
 30
0.0
 11
195.8452994616212
 21
543.6636895265444
 31
0.0
  0
LINE
  5
1DC
330
1F
100
AcDbEntity
  8
0
  6
Continuous
 62
     3
100
AcDbLine
 10
197.0
 20
519.0
 30
0.0
 11
196.7113248654034
 21
518.4999999999967
 31
0.0
  0
LINE
  5
1DD
330
1F
100
AcDbEntity
  8
0
  6
Continuous
 62
     3
100
AcDbLine
 10
197.0
 20
532.0
 30
0.0
 11
197.0
 21
519.0
 31
0.0
  0
LINE
  5
1DE
330
1F
100
AcDbEntity
  8
0
  6
Continuous
 62
     3
100
AcDbLine
 10
197.0
 20
545.0
 30
0.0
 11
197.0
 21
532.0
 31
0.0
  0
LINE
  5
1DF
330
1F
100
AcDbEntity
  8
0
  6
Continuous
 62
     3
100
AcDbLine
 10
197.0
 20
545.0
 30
0.0
 11
196.7113248654034
 21
545.5000000000032
 31
0.0
  0
LINE
  5
1E0
330
1F
100
AcDbEntity
  8
0
  6
Continuous
 62
     3
100
AcDbLine
 10
195.845299461613
 20
518.0
 30
0.0
 11
178.9999999402903
 21
518.0
 31
0.0
  0
LINE
  5
1E1
330
1F
100
AcDbEntity
  8
0
  6
Continuous
 62
     3
100
AcDbLine
 10
178.9999999402903
 20
546.0
 30
0.0
 11
195.845299461613
 21
546.0
 31
0.0
  0
LINE
  5
1E2
330
1F
100
AcDbEntity
  8
0
  6
Continuous
 62
     3
100
AcDbLine
 10
177.2679491924312
 20
544.0
 30
0.0
 11
178.1339745962175
 21
545.5000000000032
 31
0.0
  0
LINE
  5
1E3
330
1F
100
AcDbEntity
  8
0
  6
Continuous
 62
     3
100
AcDbLine
 10
177.2679491924312
 20
520.0
 30
0.0
 11
178.1339745962175
 21
518.4999999999967
 31
0.0
  0
LINE
  5
1E4
330
1F
100
AcDbEntity
  8
0
  6
Continuous
 62
     3
100
AcDbLine
 10
175.5358983848623
 20
521.0
 30
0.0
 11
170.6696007578909
 21
521.0
 31
0.0
  0
LINE
  5
1E5
330
1F
100
AcDbEntity
  8
0
  6
Continuous
 62
     3
100
AcDbLine
 10
175.5358983848623
 20
543.0
 30
0.0
 11
170.6696036134497
 21
543.0
 31
0.0
  0
LINE
  5
1E6
330
1F
100
AcDbEntity
  8
0
  6
Continuous
 62
     3
100
AcDbLine
 10
123.3303963865503
 20
543.0
 30
0.0
 11
118.4641016151377
 21
543.0
 31
0.0
  0
LINE
  5
1E7
330
1F
100
AcDbEntity
  8
0
  6
Continuous
 62
     3
100
AcDbLine
 10
123.3303992421091
 20
521.0
 30
0.0
 11
118.4641016151377
 21
521.0
 31
0.0
  0
LINE
  5
1E8
330
1F
100
AcDbEntity
  8
0
  6
Continuous
 62
     3
100
AcDbLine
 10
115.8660254037825
 20
518.4999999999967
 30
0.0
 11
116.7320508075688
 21
520.0
 31
0.0
  0
LINE
  5
1E9
330
1F
100
AcDbEntity
  8
0
  6
Continuous
 62
     3
100
AcDbLine
 10
115.8660254037825
 20
545.5000000000032
 30
0.0
 11
116.7320508075688
 21
544.0
 31
0.0
  0
LINE
  5
1EA
330
1F
100
AcDbEntity
  8
0
  6
Continuous
 62
     3
100
AcDbLine
 10
98.15470053838703
 20
546.0
 30
0.0
 11
115.0000000597097
 21
546.0
 31
0.0
  0
LINE
  5
1EB
330
1F
100
AcDbEntity
  8
0
  6
Continuous
 62
     3
100
AcDbLine
 10
115.0000000597097
 20
518.0
 30
0.0
 11
98.15470053838703
 21
518.0
 31
0.0
  0
LINE
  5
1EC
330
1F
100
AcDbEntity
  8
0
  6
Continuous
 62
     3
100
AcDbLine
 10
97.28867513459659
 20
545.5000000000032
 30
0.0
 11
97.0
 21
545.0
 31
0.0
  0
LINE
  5
1ED
330
1F
100
AcDbEntity
  8
0
  6
Continuous
 62
     3
100
AcDbLine
 10
96.99999999999994
 20
532.0
 30
0.0
 11
97.0
 21
545.0
 31
0.0
  0
LINE
  5
1EE
330
1F
100
AcDbEntity
  8
0
  6
Continuous
 62
     3
100
AcDbLine
 10
97.0
 20
519.0
 30
0.0
 11
96.99999999999994
 21
532.0
 31
0.0
  0
LINE
  5
1EF
330
1F
100
AcDbEntity
  8
0
  6
Continuous
 62
     3
100
AcDbLine
 10
97.28867513459659
 20
518.4999999999967
 30
0.0
 11
97.0
 21
519.0
 31
0.0
  0
LINE
  5
1F0
330
1F
100
AcDbEntity
  8
1
  6
Continuous
 62
     3
100
AcDbLine
 10
98.15470053837882
 20
543.6636895265444
 30
0.0
 11
113.9999999999997
 21
543.6636895265444
 31
0.0
  0
LINE
  5
1F1
330
1F
100
AcDbEntity
  8
1
  6
Continuous
 62
     3
100
AcDbLine
 10
98.15470053837882
 20
534.336310473458
 30
0.0
 11
98.15470053837882
 21
543.6636895265444
 31
0.0
  0
LINE
  5
1F2
330
1F
100
AcDbEntity
  8
1
  6
Continuous
 62
     3
100
AcDbLine
 10
113.9999999999997
 20
534.336310473458
 30
0.0
 11
98.15470053837882
 21
534.336310473458
 31
0.0
  0
LINE
  5
1F3
330
1F
100
AcDbEntity
  8
1
  6
Continuous
 62
     3
100
AcDbLine
 10
113.9999999999997
 20
543.6636895265444
 30
0.0
 11
113.9999999999997
 21
534.336310473458
 31
0.0
  0
LINE
  5
1F4
330
1F
100
AcDbEntity
  8
1
  6
Continuous
 62
     3
100
AcDbLine
 10
98.15470053837882
 20
529.6636895265444
 30
0.0
 11
113.9999999999997
 21
529.6636895265444
 31
0.0
  0
LINE
  5
1F5
330
1F
100
AcDbEntity
  8
1
  6
Continuous
 62
     3
100
AcDbLine
 10
98.15470053837882
 20
520.3363104734533
 30
0.0
 11
98.15470053837882
 21
529.6636895265444
 31
0.0
  0
LINE
  5
1F6
330
1F
100
AcDbEntity
  8
1
  6
Continuous
 62
     3
100
AcDbLine
 10
113.9999999999997
 20
520.3363104734533
 30
0.0
 11
98.15470053837882
 21
520.3363104734533
 31
0.0
  0
LINE
  5
1F7
330
1F
100
AcDbEntity
  8
1
  6
Continuous
 62
     3
100
AcDbLine
 10
113.9999999999997
 20
529.6636895265444
 30
0.0
 11
113.9999999999997
 21
520.3363104734533
 31
0.0
  0
LINE
  5
1F8
330
1F
100
AcDbEntity
  8
0
  6
Continuous
 62
     3
100
AcDbLine
 10
117.472127805543
 20
546.999999961551
 30
0.0
 11
114.475426480543
 21
547.0
 31
0.0
  0
LINE
  5
1F9
330
1F
100
AcDbEntity
  8
0
  6
Continuous
 62
     3
100
AcDbLine
 10
112.7433756729741
 20
548.0
 30
0.0
 11
111.8773502691896
 21
549.5
 31
0.0
  0
LINE
  5
1FA
330
1F
100
AcDbEntity
  8
0
  6
Continuous
 62
     3
100
AcDbLine
 10
97.28867513459471
 20
549.5
 30
0.0
 11
97.86602540378425
 21
549.5
 31
0.0
  0
LINE
  5
1FB
330
1F
100
AcDbEntity
  8
0
  6
Continuous
 62
     3
100
AcDbLine
 10
111.3000000000001
 20
549.5
 30
0.0
 11
111.8773502691896
 21
549.5
 31
0.0
  0
LINE
  5
1FC
330
1F
100
AcDbEntity
  8
0
  6
Continuous
 62
     3
100
AcDbLine
 10
96.99999999999994
 20
549.0
 30
0.0
 11
96.99999999999994
 21
532.0
 31
0.0
  0
LINE
  5
1FD
330
1F
100
AcDbEntity
  8
0
  6
Continuous
 62
     3
100
AcDbLine
 10
96.99999999999994
 20
549.0
 30
0.0
 11
97.28867513459471
 21
549.5
 31
0.0
  0
LINE
  5
1FE
330
1F
100
AcDbEntity
  8
0
  6
Continuous
 62
     3
100
AcDbLine
 10
111.2999999999998
 20
546.0
 30
0.0
 11
111.3000000000001
 21
549.5
 31
0.0
  0
LINE
  5
1FF
330
1F
100
AcDbEntity
  8
0
  6
Continuous
 62
     3
100
AcDbLine
 10
97.86602540378425
 20
549.5
 30
0.0
 11
111.3000000000001
 21
549.5
 31
0.0
  0
LINE
  5
200
330
1F
100
AcDbEntity
  8
0
  6
Continuous
 62
     3
100
AcDbLine
 10
97.86602540378436
 20
546.0
 30
0.0
 11
97.86602540378425
 21
549.5
 31
0.0
  0
LINE
  5
201
330
1F
100
AcDbEntity
  8
0
  6
Continuous
 62
     3
100
AcDbLine
 10
97.86602540378425
 20
514.5
 30
0.0
 11
97.86602540378436
 21
518.0
 31
0.0
  0
LINE
  5
202
330
1F
100
AcDbEntity
  8
0
  6
Continuous
 62
     3
100
AcDbLine
 10
111.2999999999998
 20
514.5
 30
0.0
 11
97.86602540378425
 21
514.5
 31
0.0
  0
LINE
  5
203
330
1F
100
AcDbEntity
  8
0
  6
Continuous
 62
     3
100
AcDbLine
 10
111.2999999999998
 20
514.5
 30
0.0
 11
111.2999999999998
 21
518.0
 31
0.0
  0
LINE
  5
204
330
1F
100
AcDbEntity
  8
0
  6
Continuous
 62
     3
100
AcDbLine
 10
97.28867513459471
 20
514.5
 30
0.0
 11
96.99999999999994
 21
515.0
 31
0.0
  0
LINE
  5
205
330
1F
100
AcDbEntity
  8
0
  6
Continuous
 62
     3
100
AcDbLine
 10
96.99999999999994
 20
532.0
 30
0.0
 11
96.99999999999994
 21
515.0
 31
0.0
  0
LINE
  5
206
330
1F
100
AcDbEntity
  8
0
  6
Continuous
 62
     3
100
AcDbLine
 10
111.8773502691894
 20
514.5
 30
0.0
 11
111.2999999999998
 21
514.5
 31
0.0
  0
LINE
  5
207
330
1F
100
AcDbEntity
  8
0
  6
Continuous
 62
     3
100
AcDbLine
 10
97.86602540378425
 20
514.5
 30
0.0
 11
97.28867513459471
 21
514.5
 31
0.0
  0
LINE
  5
208
330
1F
100
AcDbEntity
  8
0
  6
Continuous
 62
     3
100
AcDbLine
 10
111.8773502691894
 20
514.5
 30
0.0
 11
112.7433756729741
 21
516.0
 31
0.0
  0
LINE
  5
209
330
1F
100
AcDbEntity
  8
5
  6
Continuous
 62
     3
100
AcDbLine
 10
267.0
 20
363.9226239883902
 30
0.0
 11
268.000044587178
 21
364.4999999999992
 31
0.0
  0
LINE
  5
20A
330
1F
100
AcDbEntity
  8
5
  6
Continuous
 62
     3
100
AcDbLine
 10
305.9999679786273
 20
364.5000442299665
 30
0.0
 11
307.500044587178
 21
363.6339745962146
 31
0.0
  0
LINE
  5
20B
330
1F
100
AcDbEntity
  8
1
  6
Continuous
 62
     3
100
AcDbLine
 10
305.9999679786273
 20
364.5000442299665
 30
0.0
 11
268.0001211957286
 21
364.5000442299665
 31
0.0
  0
LINE
  5
20C
330
1F
100
AcDbEntity
  8
1
  6
Continuous
 62
     3
100
AcDbLine
 10
273.1028856829701
 20
363.6339745962146
 30
0.0
 11
273.1028856829701
 21
345.4999999999982
 31
0.0
  0
LINE
  5
20D
330
1F
100
AcDbEntity
  8
1
  6
Continuous
 62
     3
100
AcDbLine
 10
267.0
 20
363.9226239883902
 30
0.0
 11
267.0
 21
345.4999999999982
 31
0.0
  0
LINE
  5
20E
330
1F
100
AcDbEntity
  8
1
  6
Continuous
 62
     3
100
AcDbLine
 10
273.1028856829701
 20
363.6339745962146
 30
0.0
 11
267.0
 21
363.6339745962146
 31
0.0
  0
LINE
  5
20F
330
1F
100
AcDbEntity
  8
1
  6
Continuous
 62
     3
100
AcDbLine
 10
307.0
 20
363.9226754732287
 30
0.0
 11
307.0
 21
345.4999999999982
 31
0.0
  0
LINE
  5
210
330
1F
100
AcDbEntity
  8
1
  6
Continuous
 62
     3
100
AcDbLine
 10
300.8971143170299
 20
363.6339745962146
 30
0.0
 11
307.0
 21
363.6339745962146
 31
0.0
  0
LINE
  5
211
330
1F
100
AcDbEntity
  8
1
  6
Continuous
 62
     3
100
AcDbLine
 10
300.8971143170299
 20
345.4999999999982
 30
0.0
 11
300.8971143170299
 21
363.6339745962146
 31
0.0
  0
LINE
  5
212
330
1F
100
AcDbEntity
  8
1
  6
Continuous
 62
     3
100
AcDbLine
 10
293.1028856829701
 20
363.6339745962146
 30
0.0
 11
293.1028856829701
 21
345.4999999999982
 31
0.0
  0
LINE
  5
213
330
1F
100
AcDbEntity
  8
1
  6
Continuous
 62
     3
100
AcDbLine
 10
280.8971143170299
 20
363.6339745962146
 30
0.0
 11
293.1028856829701
 21
363.6339745962146
 31
0.0
  0
LINE
  5
214
330
1F
100
AcDbEntity
  8
1
  6
Continuous
 62
     3
100
AcDbLine
 10
280.8971143170299
 20
345.4999999999982
 30
0.0
 11
280.8971143170299
 21
363.6339745962146
 31
0.0
  0
LINE
  5
215
330
1F
100
AcDbEntity
  8
1
  6
Continuous
 62
     3
100
AcDbLine
 10
268.4
 20
283.0000000000002
 30
0.0
 11
268.4
 21
283.4999999999982
 31
0.0
  0
LINE
  5
216
330
1F
100
AcDbEntity
  8
1
  6
Continuous
 62
     3
100
AcDbLine
 10
305.6
 20
283.0000000000002
 30
0.0
 11
305.6
 21
283.4999999999982
 31
0.0
  0
LINE
  5
217
330
1F
100
AcDbEntity
  8
0
  6
Continuous
 62
     3
100
AcDbLine
 10
311.5
 20
313.0566243270241
 30
0.0
 11
311.5
 21
284.9433756729721
 31
0.0
  0
LINE
  5
218
330
1F
100
AcDbEntity
  8
0
  6
Continuous
 62
     3
100
AcDbLine
 10
310.0
 20
283.4999999999982
 30
0.0
 11
311.0
 21
284.0773502691878
 31
0.0
  0
LINE
  5
219
330
1F
100
AcDbEntity
  8
0
  6
Continuous
 62
     3
100
AcDbLine
 10
310.0
 20
314.4999999999982
 30
0.0
 11
311.0
 21
313.9226497308085
 31
0.0
  0
LINE
  5
21A
330
1F
100
AcDbEntity
  8
0
  6
Continuous
 62
     3
100
AcDbLine
 10
263.0
 20
315.0773502691878
 30
0.0
 11
264.0
 21
314.4999999999982
 31
0.0
  0
LINE
  5
21B
330
1F
100
AcDbEntity
  8
0
  6
Continuous
 62
     3
100
AcDbLine
 10
262.5
 20
315.9433756729721
 30
0.0
 11
262.5
 21
344.0566243270241
 31
0.0
  0
LINE
  5
21C
330
1F
100
AcDbEntity
  8
0
  6
Continuous
 62
     3
100
AcDbLine
 10
263.0
 20
344.9226497308085
 30
0.0
 11
264.0
 21
345.4999999999982
 31
0.0
  0
LINE
  5
21D
330
1F
100
AcDbEntity
  8
1
  6
Continuous
 62
     3
100
AcDbLine
 10
289.3363104734555
 20
284.1830619434487
 30
0.0
 11
298.663689526542
 21
289.5682267505818
 31
0.0
  0
LINE
  5
21E
330
1F
100
AcDbEntity
  8
1
  6
Continuous
 62
     3
100
AcDbLine
 10
275.3363104734555
 20
289.5682267505833
 30
0.0
 11
284.663689526542
 21
284.1830619434502
 31
0.0
  0
LINE
  5
21F
330
1F
100
AcDbEntity
  8
1
  6
Continuous
 62
     3
100
AcDbLine
 10
273.0
 20
304.3851648071328
 30
0.0
 11
273.0
 21
293.6148351928665
 31
0.0
  0
LINE
  5
220
330
1F
100
AcDbEntity
  8
1
  6
Continuous
 62
     3
100
AcDbLine
 10
284.6636895265444
 20
313.8169380565477
 30
0.0
 11
275.336310473458
 21
308.4317732494145
 31
0.0
  0
LINE
  5
221
330
1F
100
AcDbEntity
  8
1
  6
Continuous
 62
     3
100
AcDbLine
 10
298.6636895265444
 20
308.431773249413
 30
0.0
 11
289.3363104734579
 21
313.8169380565462
 31
0.0
  0
LINE
  5
222
330
1F
100
AcDbEntity
  8
1
  6
Continuous
 62
     3
100
AcDbLine
 10
301.0
 20
293.6148351928637
 30
0.0
 11
301.0
 21
304.38516480713
 31
0.0
  0
LINE
  5
223
330
1F
100
AcDbEntity
  8
0
  6
Continuous
 62
     3
100
AcDbLine
 10
264.0
 20
345.4999999999982
 30
0.0
 11
310.0
 21
345.4999999999982
 31
0.0
  0
LINE
  5
224
330
1F
100
AcDbEntity
  8
0
  6
Continuous
 62
     3
100
AcDbLine
 10
310.0
 20
345.4999999999982
 30
0.0
 11
311.0
 21
344.9226497308085
 31
0.0
  0
LINE
  5
225
330
1F
100
AcDbEntity
  8
0
  6
Continuous
 62
     3
100
AcDbLine
 10
311.5
 20
344.0566243270241
 30
0.0
 11
311.5
 21
315.9433756729721
 31
0.0
  0
LINE
  5
226
330
1F
100
AcDbEntity
  8
0
  6
Continuous
 62
     3
100
AcDbLine
 10
310.0
 20
314.4999999999982
 30
0.0
 11
311.0
 21
315.0773502691878
 31
0.0
  0
LINE
  5
227
330
1F
100
AcDbEntity
  8
0
  6
Continuous
 62
     3
100
AcDbLine
 10
264.0
 20
314.4999999999982
 30
0.0
 11
310.0
 21
314.4999999999982
 31
0.0
  0
LINE
  5
228
330
1F
100
AcDbEntity
  8
0
  6
Continuous
 62
     3
100
AcDbLine
 10
263.0
 20
313.9226497308085
 30
0.0
 11
264.0
 21
314.4999999999982
 31
0.0
  0
LINE
  5
229
330
1F
100
AcDbEntity
  8
0
  6
Continuous
 62
     3
100
AcDbLine
 10
264.0
 20
283.4999999999982
 30
0.0
 11
310.0
 21
283.4999999999982
 31
0.0
  0
LINE
  5
22A
330
1F
100
AcDbEntity
  8
0
  6
Continuous
 62
     3
100
AcDbLine
 10
263.0
 20
284.0773502691878
 30
0.0
 11
264.0
 21
283.4999999999982
 31
0.0
  0
LINE
  5
22B
330
1F
100
AcDbEntity
  8
0
  6
Continuous
 62
     3
100
AcDbLine
 10
262.5
 20
284.9433756729721
 30
0.0
 11
262.5
 21
313.0566243270241
 31
0.0
  0
LINE
  5
22C
330
1F
100
AcDbEntity
  8
1
  6
Continuous
 62
     3
100
AcDbLine
 10
307.0
 20
283.0000000000002
 30
0.0
 11
267.0
 21
283.0000000000002
 31
0.0
  0
LINE
  5
22D
330
1F
100
AcDbEntity
  8
1
  6
Continuous
 62
     3
100
AcDbLine
 10
307.0
 20
283.0000000000002
 30
0.0
 11
307.5
 21
282.5000000000002
 31
0.0
  0
LINE
  5
22E
330
1F
100
AcDbEntity
  8
1
  6
Continuous
 62
     3
100
AcDbLine
 10
267.0
 20
283.0000000000002
 30
0.0
 11
266.5
 21
282.5000000000002
 31
0.0
  0
LINE
  5
22F
330
1F
100
AcDbEntity
  8
1
  6
Continuous
 62
     3
100
AcDbLine
 10
266.5
 20
282.5000000000002
 30
0.0
 11
307.5
 21
282.5000000000002
 31
0.0
  0
LINE
  5
230
330
1F
100
AcDbEntity
  8
1
  6
Continuous
 62
     3
100
AcDbLine
 10
303.7480000000009
 20
214.3518247072051
 30
0.0
 11
270.2519999999989
 21
214.3518247072051
 31
0.0
  0
LINE
  5
231
330
1F
100
AcDbEntity
  8
1
  6
Continuous
 62
     3
100
AcDbLine
 10
268.999999999999
 20
213.099824707205
 30
0.0
 11
305.0000000000009
 21
213.099824707205
 31
0.0
  0
LINE
  5
232
330
1F
100
AcDbEntity
  8
1
  6
DOT_CENTER
 62
     1
100
AcDbLine
 10
265.0
 20
252.0
 30
0.0
 11
309.0000113149184
 21
252.0
 31
0.0
  0
LINE
  5
233
330
1F
100
AcDbEntity
  8
1
  6
Continuous
 62
     3
100
AcDbLine
 10
269.5872487417562
 20
279.892140930542
 30
0.0
 11
304.4127512582438
 21
279.892140930542
 31
0.0
  0
LINE
  5
234
330
1F
100
AcDbEntity
  8
0
  6
Continuous
 62
     3
100
AcDbLine
 10
181.256624327026
 20
516.0
 30
0.0
 11
182.1226497308105
 21
514.5
 31
0.0
  0
LINE
  5
235
330
1F
100
AcDbEntity
  8
0
  6
Continuous
 62
     3
100
AcDbLine
 10
196.7113248654052
 20
514.5
 30
0.0
 11
196.1339745962157
 21
514.5
 31
0.0
  0
LINE
  5
236
330
1F
100
AcDbEntity
  8
0
  6
Continuous
 62
     3
100
AcDbLine
 10
182.7000000000001
 20
514.5
 30
0.0
 11
182.1226497308105
 21
514.5
 31
0.0
  0
LINE
  5
237
330
1F
100
AcDbEntity
  8
0
  6
Continuous
 62
     3
100
AcDbLine
 10
197.0
 20
515.0
 30
0.0
 11
197.0
 21
532.0
 31
0.0
  0
LINE
  5
238
330
1F
100
AcDbEntity
  8
0
  6
Continuous
 62
     3
100
AcDbLine
 10
197.0
 20
515.0
 30
0.0
 11
196.7113248654052
 21
514.5
 31
0.0
  0
LINE
  5
239
330
1F
100
AcDbEntity
  8
0
  6
Continuous
 62
     3
100
AcDbLine
 10
182.7000000000001
 20
518.0
 30
0.0
 11
182.7000000000001
 21
514.5
 31
0.0
  0
LINE
  5
23A
330
1F
100
AcDbEntity
  8
0
  6
Continuous
 62
     3
100
AcDbLine
 10
196.1339745962157
 20
514.5
 30
0.0
 11
182.7000000000001
 21
514.5
 31
0.0
  0
LINE
  5
23B
330
1F
100
AcDbEntity
  8
0
  6
Continuous
 62
     3
100
AcDbLine
 10
196.1339745962156
 20
518.0
 30
0.0
 11
196.1339745962157
 21
514.5
 31
0.0
  0
LINE
  5
23C
330
1F
100
AcDbEntity
  8
0
  6
Continuous
 62
     3
100
AcDbLine
 10
179.5245735194571
 20
517.0
 30
0.0
 11
176.2135579650431
 21
517.000000626731
 31
0.0
  0
LINE
  5
23D
330
1F
100
AcDbEntity
  8
0
  6
Continuous
 62
     3
100
AcDbLine
 10
114.475426480543
 20
517.0
 30
0.0
 11
117.472127805543
 21
517.00000003845
 31
0.0
  0
LINE
  5
23E
330
1F
100
AcDbEntity
  8
0
  6
DOT_CENTER
 62
     1
100
AcDbLine
 10
147.0
 20
566.0
 30
0.0
 11
147.0
 21
498.0
 31
0.0
  0
LINE
  5
23F
330
1F
100
AcDbEntity
  8
0
  6
DOT_CENTER
 62
     1
100
AcDbLine
 10
200.0
 20
532.0
 30
0.0
 11
94.0
 21
532.0
 31
0.0
  0
LINE
  5
240
330
1F
100
AcDbEntity
  8
0
  6
Continuous
 62
     3
100
AcDbLine
 10
176.2135579650431
 20
546.999999373269
 30
0.0
 11
179.5245735194571
 21
547.0
 31
0.0
  0
LINE
  5
241
330
1F
100
AcDbEntity
  8
0
  6
Continuous
 62
     3
100
AcDbLine
 10
196.1339745962157
 20
549.5
 30
0.0
 11
196.1339745962156
 21
546.0
 31
0.0
  0
LINE
  5
242
330
1F
100
AcDbEntity
  8
0
  6
Continuous
 62
     3
100
AcDbLine
 10
182.7000000000001
 20
549.5
 30
0.0
 11
196.1339745962157
 21
549.5
 31
0.0
  0
LINE
  5
243
330
1F
100
AcDbEntity
  8
0
  6
Continuous
 62
     3
100
AcDbLine
 10
182.7000000000001
 20
549.5
 30
0.0
 11
182.7000000000001
 21
546.0
 31
0.0
  0
LINE
  5
244
330
1F
100
AcDbEntity
  8
0
  6
Continuous
 62
     3
100
AcDbLine
 10
196.7113248654052
 20
549.5
 30
0.0
 11
197.0
 21
549.0
 31
0.0
  0
LINE
  5
245
330
1F
100
AcDbEntity
  8
0
  6
Continuous
 62
     3
100
AcDbLine
 10
197.0
 20
532.0
 30
0.0
 11
197.0
 21
549.0
 31
0.0
  0
LINE
  5
246
330
1F
100
AcDbEntity
  8
0
  6
Continuous
 62
     3
100
AcDbLine
 10
182.1226497308105
 20
549.5
 30
0.0
 11
182.7000000000001
 21
549.5
 31
0.0
  0
LINE
  5
247
330
1F
100
AcDbEntity
  8
0
  6
Continuous
 62
     3
100
AcDbLine
 10
196.1339745962157
 20
549.5
 30
0.0
 11
196.7113248654052
 21
549.5
 31
0.0
  0
LINE
  5
248
330
1F
100
AcDbEntity
  8
0
  6
Continuous
 62
     3
100
AcDbLine
 10
182.1226497308105
 20
549.5
 30
0.0
 11
181.256624327026
 21
548.0
 31
0.0
  0
LINE
  5
249
330
1F
100
AcDbEntity
  8
2
  6
Continuous
 62
     3
100
AcDbLine
 10
282.2499873064539
 20
425.5000442299667
 30
0.0
 11
282.2499873064539
 21
407.5000434215667
 31
0.0
  0
LINE
  5
24A
330
1F
100
AcDbEntity
  8
2
  6
Continuous
 62
     3
100
AcDbLine
 10
291.7499873064539
 20
407.5000434215667
 30
0.0
 11
291.7499873064539
 21
425.5000442299667
 31
0.0
  0
LINE
  5
253
330
1F
100
AcDbEntity
  8
3
  6
Continuous
 62
     3
100
AcDbLine
 10
255.9999873064539
 20
427.5000442299667
 30
0.0
 11
255.9999873064539
 21
435.5447827484306
 31
0.0
  0
LINE
  5
254
330
1F
100
AcDbEntity
  8
3
  6
Continuous
 62
     3
100
AcDbLine
 10
260.2559699986857
 20
441.2857237540667
 30
0.0
 11
273.7733134282173
 21
445.3921029823167
 31
0.0
  0
LINE
  5
255
330
1F
100
AcDbEntity
  8
3
  6
Continuous
 62
     3
100
AcDbLine
 10
299.4999873064534
 20
445.5000442299667
 30
0.0
 11
274.1286334884484
 21
445.5000442299667
 31
0.0
  0
LINE
  5
256
330
1F
100
AcDbEntity
  8
3
  6
Continuous
 62
     3
100
AcDbLine
 10
313.7440046142213
 20
441.2857237540667
 30
0.0
 11
300.2266611846913
 21
445.3921029823167
 31
0.0
  0
LINE
  5
257
330
1F
100
AcDbEntity
  8
3
  6
Continuous
 62
     3
100
AcDbLine
 10
317.9999873064534
 20
427.5000442299667
 30
0.0
 11
317.9999873064534
 21
435.5447827484306
 31
0.0
  0
LINE
  5
258
330
1F
100
AcDbEntity
  8
3
  6
Continuous
 62
     3
100
AcDbLine
 10
257.9999873064539
 20
425.5000442299667
 30
0.0
 11
315.9999873064534
 21
425.5000442299667
 31
0.0
  0
LINE
  5
259
330
1F
100
AcDbEntity
  8
1
  6
Continuous
 62
     3
100
AcDbLine
 10
304.6361201479549
 20
198.4744641298761
 30
0.0
 11
308.249986906955
 21
198.4744641298761
 31
0.0
  0
LINE
  5
25A
330
1F
100
AcDbEntity
  8
1
  6
Continuous
 62
     3
100
AcDbLine
 10
308.249986906955
 20
211.4896370338776
 30
0.0
 11
304.6361201479549
 21
211.4896370338776
 31
0.0
  0
LINE
  5
25B
330
1F
100
AcDbEntity
  8
1
  6
Continuous
 62
     3
100
AcDbLine
 10
304.6361201479549
 20
198.4744641298761
 30
0.0
 11
304.6361201479549
 21
211.4896370338776
 31
0.0
  0
LINE
  5
25C
330
1F
100
AcDbEntity
  8
1
  6
Continuous
 62
     3
100
AcDbLine
 10
269.363854464953
 20
211.4896370338776
 30
0.0
 11
265.7499877059549
 21
211.4896370338776
 31
0.0
  0
LINE
  5
25D
330
1F
100
AcDbEntity
  8
1
  6
Continuous
 62
     3
100
AcDbLine
 10
299.4999873064549
 20
182.9999997743079
 30
0.0
 11
274.499987306455
 21
182.9999997743079
 31
0.0
  0
LINE
  5
25E
330
1F
100
AcDbEntity
  8
1
  6
Continuous
 62
     3
100
AcDbLine
 10
300.4999873064549
 20
183.9999997743079
 30
0.0
 11
273.499987306455
 21
183.9999997743079
 31
0.0
  0
LINE
  5
25F
330
1F
100
AcDbEntity
  8
1
  6
Continuous
 62
     3
100
AcDbLine
 10
273.499987306455
 20
193.9999997743079
 30
0.0
 11
300.4999873064549
 21
193.9999997743079
 31
0.0
  0
LINE
  5
260
330
1F
100
AcDbEntity
  8
1
  6
Continuous
 62
     3
100
AcDbLine
 10
266.0891279698039
 20
198.4744641298761
 30
0.0
 11
265.7499877059549
 21
198.4744641298761
 31
0.0
  0
LINE
  5
261
330
1F
100
AcDbEntity
  8
1
  6
Continuous
 62
     3
100
AcDbLine
 10
290.274713801604
 20
198.4744641298761
 30
0.0
 11
283.725260811304
 21
198.4744641298761
 31
0.0
  0
LINE
  5
262
330
1F
100
AcDbEntity
  8
1
  6
Continuous
 62
     3
100
AcDbLine
 10
265.7499877059549
 20
198.4744641298761
 30
0.0
 11
269.363854464953
 21
198.4744641298761
 31
0.0
  0
LINE
  5
263
330
1F
100
AcDbEntity
  8
1
  6
Continuous
 62
     3
100
AcDbLine
 10
308.249986906955
 20
198.4744641298761
 30
0.0
 11
307.9622502539989
 21
198.4744641298761
 31
0.0
  0
LINE
  5
264
330
1F
100
AcDbEntity
  8
1
  6
Continuous
 62
     3
100
AcDbLine
 10
307.9622502539989
 20
211.4896370338776
 30
0.0
 11
308.249986906955
 21
211.4896370338776
 31
0.0
  0
LINE
  5
265
330
1F
100
AcDbEntity
  8
1
  6
Continuous
 62
     3
100
AcDbLine
 10
283.725260811304
 20
211.4896370338776
 30
0.0
 11
290.274713801604
 21
211.4896370338776
 31
0.0
  0
LINE
  5
266
330
1F
100
AcDbEntity
  8
1
  6
Continuous
 62
     3
100
AcDbLine
 10
265.7499877059549
 20
211.4896370338776
 30
0.0
 11
266.0891279698039
 21
211.4896370338776
 31
0.0
  0
LINE
  5
267
330
1F
100
AcDbEntity
  8
1
  6
Continuous
 62
     3
100
AcDbLine
 10
269.363854464953
 20
211.4896370338776
 30
0.0
 11
269.363854464953
 21
198.4744641298761
 31
0.0
  0
LINE
  5
268
330
1F
100
AcDbEntity
  8
1
  6
Continuous
 62
     3
100
AcDbLine
 10
283.725260811304
 20
211.4896370338776
 30
0.0
 11
283.725260811304
 21
198.4744641298761
 31
0.0
  0
LINE
  5
269
330
1F
100
AcDbEntity
  8
1
  6
Continuous
 62
     3
100
AcDbLine
 10
290.274713801604
 20
211.4896370338776
 30
0.0
 11
290.274713801604
 21
198.4744641298761
 31
0.0
  0
LINE
  5
26A
330
1F
100
AcDbEntity
  8
1
  6
Continuous
 62
     3
100
AcDbLine
 10
273.499987306455
 20
183.9999997743079
 30
0.0
 11
274.499987306455
 21
182.9999997743079
 31
0.0
  0
LINE
  5
26B
330
1F
100
AcDbEntity
  8
1
  6
Continuous
 62
     3
100
AcDbLine
 10
265.7499877059549
 20
198.4744641298761
 30
0.0
 11
273.499987306455
 21
193.9999997743079
 31
0.0
  0
LINE
  5
26C
330
1F
100
AcDbEntity
  8
1
  6
Continuous
 62
     3
100
AcDbLine
 10
273.499987306455
 20
193.9999997743079
 30
0.0
 11
273.499987306455
 21
183.9999997743079
 31
0.0
  0
LINE
  5
26D
330
1F
100
AcDbEntity
  8
1
  6
Continuous
 62
     3
100
AcDbLine
 10
300.4999873064549
 20
183.9999997743079
 30
0.0
 11
299.4999873064549
 21
182.9999997743079
 31
0.0
  0
LINE
  5
26E
330
1F
100
AcDbEntity
  8
1
  6
Continuous
 62
     3
100
AcDbLine
 10
300.4999873064549
 20
193.9999997743079
 30
0.0
 11
308.249986906955
 21
198.4744641298761
 31
0.0
  0
LINE
  5
26F
330
1F
100
AcDbEntity
  8
1
  6
Continuous
 62
     3
100
AcDbLine
 10
300.4999873064549
 20
183.9999997743079
 30
0.0
 11
300.4999873064549
 21
193.9999997743079
 31
0.0
  0
LINE
  5
270
330
1F
100
AcDbEntity
  8
1
  6
Continuous
 62
     3
100
AcDbLine
 10
268.749987626995
 20
212.499999774308
 30
0.0
 11
269.9499876269949
 21
212.499999774308
 31
0.0
  0
LINE
  5
271
330
1F
100
AcDbEntity
  8
1
  6
Continuous
 62
     3
100
AcDbLine
 10
269.9499876269949
 20
212.499999774308
 30
0.0
 11
286.9999873064549
 21
212.499999774308
 31
0.0
  0
LINE
  5
272
330
1F
100
AcDbEntity
  8
1
  6
Continuous
 62
     3
100
AcDbLine
 10
304.049986985915
 20
212.499999774308
 30
0.0
 11
305.2499869859149
 21
212.499999774308
 31
0.0
  0
LINE
  5
273
330
1F
100
AcDbEntity
  8
1
  6
Continuous
 62
     3
100
AcDbLine
 10
286.9999873064549
 20
212.499999774308
 30
0.0
 11
304.049986985915
 21
212.499999774308
 31
0.0
  0
LINE
  5
274
330
1F
100
AcDbEntity
  8
1
  6
Continuous
 62
     3
100
AcDbLine
 10
267.499987306455
 20
212.499999774308
 30
0.0
 11
268.749987626995
 21
212.499999774308
 31
0.0
  0
LINE
  5
275
330
1F
100
AcDbEntity
  8
1
  6
Continuous
 62
     3
100
AcDbLine
 10
267.499987306455
 20
212.499999774308
 30
0.0
 11
265.7499877059549
 21
211.4896370338776
 31
0.0
  0
LINE
  5
276
330
1F
100
AcDbEntity
  8
1
  6
Continuous
 62
     3
100
AcDbLine
 10
308.249986906955
 20
211.4896370338776
 30
0.0
 11
308.249986906955
 21
198.4744641298761
 31
0.0
  0
LINE
  5
277
330
1F
100
AcDbEntity
  8
1
  6
Continuous
 62
     3
100
AcDbLine
 10
265.7499877059549
 20
211.4896370338776
 30
0.0
 11
265.7499877059549
 21
198.4744641298761
 31
0.0
  0
LINE
  5
278
330
1F
100
AcDbEntity
  8
1
  6
Continuous
 62
     3
100
AcDbLine
 10
305.2499869859149
 20
212.499999774308
 30
0.0
 11
306.4999873064549
 21
212.499999774308
 31
0.0
  0
LINE
  5
279
330
1F
100
AcDbEntity
  8
1
  6
Continuous
 62
     3
100
AcDbLine
 10
306.4999873064549
 20
212.499999774308
 30
0.0
 11
308.249986906955
 21
211.4896370338776
 31
0.0
  0
LINE
  5
27A
330
1F
100
AcDbEntity
  8
0
  6
Continuous
 62
     3
100
AcDbLine
 10
269.499987306461
 20
257.9999999999017
 30
0.0
 11
269.4999873064539
 21
245.9999999999211
 31
0.0
  0
LINE
  5
27B
330
1F
100
AcDbEntity
  8
0
  6
Continuous
 62
     3
100
AcDbLine
 10
273.053834883754
 20
239.844555433674
 30
0.0
 11
283.4461397291669
 21
233.844555433674
 31
0.0
  0
LINE
  5
27C
330
1F
100
AcDbEntity
  8
0
  6
Continuous
 62
     3
100
AcDbLine
 10
300.9461397291669
 20
239.844555433674
 30
0.0
 11
290.553834883754
 21
233.844555433674
 31
0.0
  0
LINE
  5
27D
330
1F
100
AcDbEntity
  8
0
  6
Continuous
 62
     3
100
AcDbLine
 10
304.499987306461
 20
257.9999999999017
 30
0.0
 11
304.499987306461
 21
245.9999999999017
 31
0.0
  0
LINE
  5
27E
330
1F
100
AcDbEntity
  8
0
  6
Continuous
 62
     3
100
AcDbLine
 10
290.553834883754
 20
270.1554445661294
 30
0.0
 11
300.9461397291669
 21
264.1554445661294
 31
0.0
  0
LINE
  5
27F
330
1F
100
AcDbEntity
  8
0
  6
Continuous
 62
     3
100
AcDbLine
 10
283.4461397291669
 20
270.1554445661294
 30
0.0
 11
273.0538348836369
 21
264.1554445660621
 31
0.0
  0
LINE
  5
280
330
1F
100
AcDbEntity
  8
1
  6
Continuous
 62
     3
100
AcDbLine
 10
286.9999751853622
 20
382.5000438915662
 30
0.0
 11
286.9999751853622
 21
369.5000441359666
 31
0.0
  0
LINE
  5
281
330
1F
100
AcDbEntity
  8
1
  6
Continuous
 62
     3
100
AcDbLine
 10
268.0000003572
 20
364.5000442299665
 30
0.0
 11
305.9999996427996
 21
364.5000442299665
 31
0.0
  0
LINE
  5
282
330
1F
100
AcDbEntity
  8
1
  6
Continuous
 62
     3
100
AcDbLine
 10
267.0000003759997
 20
365.5000442111663
 30
0.0
 11
268.0000003572
 21
364.5000442299665
 31
0.0
  0
LINE
  5
283
330
1F
100
AcDbEntity
  8
1
  6
Continuous
 62
     3
100
AcDbLine
 10
305.9999996427996
 20
364.5000442299665
 30
0.0
 11
306.9999996239999
 21
365.5000442111663
 31
0.0
  0
LINE
  5
284
330
1F
100
AcDbEntity
  8
1
  6
Continuous
 62
     3
100
AcDbLine
 10
267.0000003759997
 20
366.8590280342392
 30
0.0
 11
267.0000003759997
 21
365.5000442111663
 31
0.0
  0
LINE
  5
285
330
1F
100
AcDbEntity
  8
1
  6
Continuous
 62
     3
100
AcDbLine
 10
270.9999751853623
 20
383.3762023486303
 30
0.0
 11
270.9999751853623
 21
369.5000441359666
 31
0.0
  0
LINE
  5
286
330
1F
100
AcDbEntity
  8
1
  6
Continuous
 62
     3
100
AcDbLine
 10
277.0000001879997
 20
405.5000434591661
 30
0.0
 11
277.0000001879997
 21
389.0341773873674
 31
0.0
  0
LINE
  5
287
330
1F
100
AcDbEntity
  8
1
  6
Continuous
 62
     3
100
AcDbLine
 10
294.9999998495996
 20
407.5000434215667
 30
0.0
 11
279.0000001503999
 21
407.5000434215667
 31
0.0
  0
LINE
  5
288
330
1F
100
AcDbEntity
  8
1
  6
Continuous
 62
     3
100
AcDbLine
 10
296.9999998119997
 20
389.0341773873674
 30
0.0
 11
296.9999998119997
 21
405.5000434591661
 31
0.0
  0
LINE
  5
289
330
1F
100
AcDbEntity
  8
1
  6
Continuous
 62
     3
100
AcDbLine
 10
302.9999751853622
 20
383.3762110258814
 30
0.0
 11
300.3315726952082
 21
384.3207550288657
 31
0.0
  0
LINE
  5
28A
330
1F
100
AcDbEntity
  8
1
  6
Continuous
 62
     3
100
AcDbLine
 10
302.9999996992
 20
369.5000441359666
 30
0.0
 11
302.9999996992
 21
383.3762023486303
 31
0.0
  0
LINE
  5
28B
330
1F
100
AcDbEntity
  8
1
  6
Continuous
 62
     3
100
AcDbLine
 10
306.9999996239999
 20
365.5000442111663
 30
0.0
 11
306.9999996239999
 21
366.8590280342392
 31
0.0
  0
LINE
  5
28C
330
1F
100
AcDbEntity
  8
1
  6
Continuous
 62
     3
100
AcDbLine
 10
273.6684273047913
 20
384.3207550288666
 30
0.0
 11
270.9999751853623
 21
383.3761934584293
 31
0.0
  0
LINE
  5
28D
330
1F
100
AcDbEntity
  8
1
  6
Continuous
 62
     3
100
AcDbLine
 10
305.4752082667337
 20
369.5000441359666
 30
0.0
 11
268.4752082667336
 21
369.5000441359666
 31
0.0
  0
LINE
  5
28E
330
1F
100
AcDbEntity
  8
1
  6
Continuous
 62
     3
100
AcDbLine
 10
306.9999996239999
 20
365.5000442111663
 30
0.0
 11
266.9999996239999
 21
365.5000442111663
 31
0.0
  0
LINE
  5
28F
330
1F
100
AcDbEntity
  8
1
  6
Continuous
 62
     1
100
AcDbLine
 10
270.0825
 20
214.1823247072061
 30
0.0
 11
270.0825
 21
212.499999774308
 31
0.0
  0
LINE
  5
290
330
1F
100
AcDbEntity
  8
1
  6
Continuous
 62
     1
100
AcDbLine
 10
303.9174999999999
 20
213.1824500322195
 30
0.0
 11
303.9174999999999
 21
212.499999774308
 31
0.0
  0
LINE
  5
291
330
1F
100
AcDbEntity
  8
1
  6
DOT_CENTER
 62
     1
100
AcDbLine
 10
287.0
 20
179.9999997744018
 30
0.0
 11
287.0
 21
448.5000442299667
 31
0.0
  0
LINE
  5
292
330
1F
100
AcDbEntity
  8
0
  6
Continuous
 62
     3
100
AcDbLine
 10
272.0
 20
276.8047553425934
 30
0.0
 11
272.0
 21
277.3936638629941
 31
0.0
  0
LINE
  5
293
330
1F
100
AcDbEntity
  8
0
  6
Continuous
 62
     3
100
AcDbLine
 10
268.0
 20
227.3283939151826
 30
0.0
 11
268.0
 21
270.1715061492504
 31
0.0
  0
LINE
  5
294
330
1F
100
AcDbEntity
  8
0
  6
Continuous
 62
     3
100
AcDbLine
 10
266.5
 20
282.5000000000002
 30
0.0
 11
266.5
 21
281.448483194427
 31
0.0
  0
LINE
  5
295
330
1F
100
AcDbEntity
  8
0
  6
Continuous
 62
     3
100
AcDbLine
 10
269.5872487417562
 20
279.892140930542
 30
0.0
 11
267.9476507549463
 21
279.9493969538984
 31
0.0
  0
LINE
  5
296
330
1F
100
AcDbEntity
  8
0
  6
Continuous
 62
     3
100
AcDbLine
 10
307.5
 20
282.5000000000002
 30
0.0
 11
307.5
 21
281.448483194427
 31
0.0
  0
LINE
  5
297
330
1F
100
AcDbEntity
  8
0
  6
Continuous
 62
     3
100
AcDbLine
 10
306.0000266772768
 20
227.3283939018811
 30
0.0
 11
306.0
 21
270.1715061625518
 31
0.0
  0
LINE
  5
298
330
1F
100
AcDbEntity
  8
0
  6
Continuous
 62
     3
100
AcDbLine
 10
304.4127512582438
 20
279.892140930542
 30
0.0
 11
306.0523492450538
 21
279.9493969538984
 31
0.0
  0
LINE
  5
299
330
1F
100
AcDbEntity
  8
0
  6
Continuous
 62
     3
100
AcDbLine
 10
302.0
 20
276.8047561925398
 30
0.0
 11
302.0
 21
277.3936638629941
 31
0.0
  0
LINE
  5
29A
330
1F
100
AcDbEntity
  8
0
  6
Continuous
 62
     3
100
AcDbLine
 10
272.5
 20
216.871315431947
 30
0.0
 11
272.5
 21
220.4545295995014
 31
0.0
  0
LINE
  5
29B
330
1F
100
AcDbEntity
  8
0
  6
Continuous
 62
     3
100
AcDbLine
 10
301.5
 20
216.871315431947
 30
0.0
 11
301.5
 21
220.4545304838328
 31
0.0
  0
LINE
  5
29C
330
1F
100
AcDbEntity
  8
1
  6
Continuous
 62
     3
100
AcDbLine
 10
303.7480000000009
 20
214.3518247072051
 30
0.0
 11
305.0000000000009
 21
213.099824707205
 31
0.0
  0
LINE
  5
29D
330
1F
100
AcDbEntity
  8
1
  6
Continuous
 62
     3
100
AcDbLine
 10
270.2519999999989
 20
214.3518247072051
 30
0.0
 11
268.999999999999
 21
213.099824707205
 31
0.0
  0
LINE
  5
29E
330
1F
100
AcDbEntity
  8
1
  6
Continuous
 62
     3
100
AcDbLine
 10
271.8895011419845
 20
215.2529307787597
 30
0.0
 11
272.0
 21
215.371315431947
 31
0.0
  0
LINE
  5
29F
330
1F
100
AcDbEntity
  8
1
  6
Continuous
 62
     3
100
AcDbLine
 10
302.1104988580153
 20
215.2529307787597
 30
0.0
 11
302.0
 21
215.371315431947
 31
0.0
  0
LINE
  5
2A0
330
1F
100
AcDbEntity
  8
0
  6
Continuous
 62
     3
100
AcDbLine
 10
268.999999999999
 20
212.499999774308
 30
0.0
 11
268.999999999999
 21
213.099824707205
 31
0.0
  0
LINE
  5
2A1
330
1F
100
AcDbEntity
  8
0
  6
Continuous
 62
     3
100
AcDbLine
 10
305.0000000000009
 20
212.499999774308
 30
0.0
 11
305.0000000000009
 21
213.099824707205
 31
0.0
  0
LINE
  5
2A2
330
1F
100
AcDbEntity
  8
1
  6
Continuous
 62
     1
100
AcDbLine
 10
303.9174999999998
 20
214.1824500322195
 30
0.0
 11
303.9174999999999
 21
212.499999774308
 31
0.0
  0
LINE
  5
2A3
330
1F
100
AcDbEntity
  8
0
  6
Continuous
 62
     3
100
AcDbLine
 10
161.5151605904033
 20
216.9370243226914
 30
0.0
 11
161.5151605904033
 21
220.4452264443831
 31
0.0
  0
LINE
  5
2A4
330
1F
100
AcDbEntity
  8
1
  6
Continuous
 62
     3
100
AcDbLine
 10
163.0318636038125
 20
222.7602200621437
 30
0.0
 11
164.4966775676239
 21
223.5822272530212
 31
0.0
  0
LINE
  5
2A5
330
1F
100
AcDbEntity
  8
1
  6
Continuous
 62
     3
100
AcDbLine
 10
130.2671605904023
 20
214.4175335979496
 30
0.0
 11
129.0151605904023
 21
213.1655335979494
 31
0.0
  0
LINE
  5
2A6
330
1F
100
AcDbEntity
  8
1
  6
Continuous
 62
     7
100
AcDbLine
 10
130.2671605904023
 20
214.4175335979496
 30
0.0
 11
130.4689603117143
 21
214.4175335979496
 31
0.0
  0
LINE
  5
2A7
330
1F
100
AcDbEntity
  8
1
  6
Continuous
 62
     3
100
AcDbLine
 10
131.9046617323879
 20
215.3186396695042
 30
0.0
 11
132.0151605904033
 21
215.4370243226914
 31
0.0
  0
LINE
  5
2A8
330
1F
100
AcDbEntity
  8
0
  6
Continuous
 62
     3
100
AcDbLine
 10
129.0151605904023
 20
212.4999997744019
 30
0.0
 11
129.0151605904023
 21
213.1655335979494
 31
0.0
  0
LINE
  5
2A9
330
1F
100
AcDbEntity
  8
1
  6
Continuous
 62
     1
100
AcDbLine
 10
130.0976605904032
 20
214.2481589229639
 30
0.0
 11
130.0976605904032
 21
212.4999997744019
 31
0.0
  0
LINE
  5
2AA
330
1F
100
AcDbEntity
  8
1
  6
Continuous
 62
     3
100
AcDbLine
 10
163.7631605904042
 20
214.4175335979496
 30
0.0
 11
165.0151605904042
 21
213.1655335979494
 31
0.0
  0
LINE
  5
2AB
330
1F
100
AcDbEntity
  8
1
  6
Continuous
 62
     7
100
AcDbLine
 10
163.7631605904042
 20
214.4175335979496
 30
0.0
 11
163.5787041187365
 21
214.4175335979496
 31
0.0
  0
LINE
  5
2AC
330
1F
100
AcDbEntity
  8
1
  6
Continuous
 62
     3
100
AcDbLine
 10
162.1256594484186
 20
215.3186396695042
 30
0.0
 11
162.0151605904033
 21
215.4370243226914
 31
0.0
  0
LINE
  5
2AD
330
1F
100
AcDbEntity
  8
0
  6
Continuous
 62
     3
100
AcDbLine
 10
165.0151605904042
 20
212.4999997744019
 30
0.0
 11
165.0151605904042
 21
213.1655335979494
 31
0.0
  0
LINE
  5
2AE
330
1F
100
AcDbEntity
  8
1
  6
Continuous
 62
     1
100
AcDbLine
 10
163.9326605904032
 20
214.2481589229639
 30
0.0
 11
163.9326605904032
 21
212.4999997744019
 31
0.0
  0
LINE
  5
2AF
330
1F
100
AcDbEntity
  8
1
  6
Continuous
 62
     3
100
AcDbLine
 10
160.5
 20
183.9999997744018
 30
0.0
 11
133.5
 21
183.9999997744018
 31
0.0
  0
LINE
  5
2B0
330
1F
100
AcDbEntity
  8
1
  6
Continuous
 62
     3
100
AcDbLine
 10
133.5
 20
193.9999997744018
 30
0.0
 11
160.5
 21
193.9999997744018
 31
0.0
  0
LINE
  5
2B1
330
1F
100
AcDbEntity
  8
1
  6
Continuous
 62
     3
100
AcDbLine
 10
126.0891406633491
 20
198.47446412997
 30
0.0
 11
125.7500003995001
 21
198.47446412997
 31
0.0
  0
LINE
  5
2B2
330
1F
100
AcDbEntity
  8
1
  6
Continuous
 62
     3
100
AcDbLine
 10
160.7301561634754
 20
198.47446412997
 30
0.0
 11
154.1807031731756
 21
198.47446412997
 31
0.0
  0
LINE
  5
2B3
330
1F
100
AcDbEntity
  8
1
  6
Continuous
 62
     3
100
AcDbLine
 10
133.2698438365247
 20
198.47446412997
 30
0.0
 11
139.8192968268241
 21
198.47446412997
 31
0.0
  0
LINE
  5
2B4
330
1F
100
AcDbEntity
  8
1
  6
Continuous
 62
     3
100
AcDbLine
 10
168.2499996004999
 20
198.47446412997
 30
0.0
 11
167.9622629475443
 21
198.47446412997
 31
0.0
  0
LINE
  5
2B5
330
1F
100
AcDbEntity
  8
1
  6
Continuous
 62
     3
100
AcDbLine
 10
167.9622629475443
 20
211.4896370339715
 30
0.0
 11
168.2499996004999
 21
211.4896370339715
 31
0.0
  0
LINE
  5
2B6
330
1F
100
AcDbEntity
  8
1
  6
Continuous
 62
     3
100
AcDbLine
 10
139.8192968268241
 20
211.4896370339715
 30
0.0
 11
133.2698438365247
 21
211.4896370339715
 31
0.0
  0
LINE
  5
2B7
330
1F
100
AcDbEntity
  8
1
  6
Continuous
 62
     3
100
AcDbLine
 10
154.1807031731756
 20
211.4896370339715
 30
0.0
 11
160.7301561634754
 21
211.4896370339715
 31
0.0
  0
LINE
  5
2B8
330
1F
100
AcDbEntity
  8
1
  6
Continuous
 62
     3
100
AcDbLine
 10
125.7500003995001
 20
211.4896370339715
 30
0.0
 11
126.0891406633491
 21
211.4896370339715
 31
0.0
  0
LINE
  5
2B9
330
1F
100
AcDbEntity
  8
1
  6
Continuous
 62
     3
100
AcDbLine
 10
167.9622629475443
 20
211.4896370339715
 30
0.0
 11
167.9622629475443
 21
198.47446412997
 31
0.0
  0
LINE
  5
2BA
330
1F
100
AcDbEntity
  8
1
  6
Continuous
 62
     3
100
AcDbLine
 10
126.0891406633491
 20
211.4896370339715
 30
0.0
 11
126.0891406633491
 21
198.47446412997
 31
0.0
  0
LINE
  5
2BB
330
1F
100
AcDbEntity
  8
1
  6
Continuous
 62
     3
100
AcDbLine
 10
133.2698438365247
 20
211.4896370339715
 30
0.0
 11
133.2698438365247
 21
198.47446412997
 31
0.0
  0
LINE
  5
2BC
330
1F
100
AcDbEntity
  8
1
  6
Continuous
 62
     3
100
AcDbLine
 10
139.8192968268241
 20
211.4896370339715
 30
0.0
 11
139.8192968268241
 21
198.47446412997
 31
0.0
  0
LINE
  5
2BD
330
1F
100
AcDbEntity
  8
1
  6
Continuous
 62
     3
100
AcDbLine
 10
154.1807031731756
 20
211.4896370339715
 30
0.0
 11
154.1807031731756
 21
198.47446412997
 31
0.0
  0
LINE
  5
2BE
330
1F
100
AcDbEntity
  8
1
  6
Continuous
 62
     3
100
AcDbLine
 10
160.7301561634754
 20
211.4896370339715
 30
0.0
 11
160.7301561634754
 21
198.47446412997
 31
0.0
  0
LINE
  5
2BF
330
1F
100
AcDbEntity
  8
1
  6
Continuous
 62
     3
100
AcDbLine
 10
133.5
 20
183.9999997744018
 30
0.0
 11
134.5
 21
182.9999997744018
 31
0.0
  0
LINE
  5
2C0
330
1F
100
AcDbEntity
  8
1
  6
Continuous
 62
     3
100
AcDbLine
 10
125.7500003995001
 20
198.47446412997
 30
0.0
 11
133.5
 21
193.9999997744018
 31
0.0
  0
LINE
  5
2C1
330
1F
100
AcDbEntity
  8
1
  6
Continuous
 62
     3
100
AcDbLine
 10
133.5
 20
193.9999997744018
 30
0.0
 11
133.5
 21
183.9999997744018
 31
0.0
  0
LINE
  5
2C2
330
1F
100
AcDbEntity
  8
1
  6
Continuous
 62
     3
100
AcDbLine
 10
160.5
 20
183.9999997744018
 30
0.0
 11
159.5
 21
182.9999997744018
 31
0.0
  0
LINE
  5
2C3
330
1F
100
AcDbEntity
  8
1
  6
Continuous
 62
     3
100
AcDbLine
 10
160.5
 20
193.9999997744018
 30
0.0
 11
168.2499996004999
 21
198.47446412997
 31
0.0
  0
LINE
  5
2C4
330
1F
100
AcDbEntity
  8
1
  6
Continuous
 62
     3
100
AcDbLine
 10
160.5
 20
183.9999997744018
 30
0.0
 11
160.5
 21
193.9999997744018
 31
0.0
  0
LINE
  5
2C5
330
1F
100
AcDbEntity
  8
1
  6
Continuous
 62
     3
100
AcDbLine
 10
128.7500003205404
 20
212.4999997744019
 30
0.0
 11
129.9500003205404
 21
212.4999997744019
 31
0.0
  0
LINE
  5
2C6
330
1F
100
AcDbEntity
  8
1
  6
Continuous
 62
     3
100
AcDbLine
 10
129.9500003205404
 20
212.4999997744019
 30
0.0
 11
147.0
 21
212.4999997744019
 31
0.0
  0
LINE
  5
2C7
330
1F
100
AcDbEntity
  8
1
  6
Continuous
 62
     3
100
AcDbLine
 10
164.0499996794602
 20
212.4999997744019
 30
0.0
 11
165.2499996794602
 21
212.4999997744019
 31
0.0
  0
LINE
  5
2C8
330
1F
100
AcDbEntity
  8
1
  6
Continuous
 62
     3
100
AcDbLine
 10
147.0
 20
212.4999997744019
 30
0.0
 11
164.0499996794602
 21
212.4999997744019
 31
0.0
  0
LINE
  5
2C9
330
1F
100
AcDbEntity
  8
1
  6
Continuous
 62
     3
100
AcDbLine
 10
127.5
 20
212.4999997744019
 30
0.0
 11
128.7500003205404
 21
212.4999997744019
 31
0.0
  0
LINE
  5
2CA
330
1F
100
AcDbEntity
  8
1
  6
Continuous
 62
     3
100
AcDbLine
 10
127.5
 20
212.4999997744019
 30
0.0
 11
125.7500003995001
 21
211.4896370339715
 31
0.0
  0
LINE
  5
2CB
330
1F
100
AcDbEntity
  8
1
  6
Continuous
 62
     3
100
AcDbLine
 10
168.2499996004999
 20
211.4896370339715
 30
0.0
 11
168.2499996004999
 21
198.47446412997
 31
0.0
  0
LINE
  5
2CC
330
1F
100
AcDbEntity
  8
1
  6
Continuous
 62
     3
100
AcDbLine
 10
125.7500003995001
 20
211.4896370339715
 30
0.0
 11
125.7500003995001
 21
198.47446412997
 31
0.0
  0
LINE
  5
2CD
330
1F
100
AcDbEntity
  8
1
  6
Continuous
 62
     3
100
AcDbLine
 10
165.2499996794602
 20
212.4999997744019
 30
0.0
 11
166.5
 21
212.4999997744019
 31
0.0
  0
LINE
  5
2CE
330
1F
100
AcDbEntity
  8
1
  6
Continuous
 62
     3
100
AcDbLine
 10
166.5
 20
212.4999997744019
 30
0.0
 11
168.2499996004999
 21
211.4896370339715
 31
0.0
  0
LINE
  5
2CF
330
1F
100
AcDbEntity
  8
1
  6
Continuous
 62
     3
100
AcDbLine
 10
117.2549298289733
 20
237.0000000000001
 30
0.0
 11
118.1576733663488
 21
237.0000000000001
 31
0.0
  0
LINE
  5
2D0
330
1F
100
AcDbEntity
  8
0
  6
Continuous
 62
     3
100
AcDbLine
 10
118.1576733663488
 20
237.0000000000001
 30
0.0
 11
126.0000018431553
 21
237.0000000000001
 31
0.0
  0
LINE
  5
2D1
330
1F
100
AcDbEntity
  8
1
  6
Continuous
 62
     3
100
AcDbLine
 10
176.7450701710267
 20
267.0000000000001
 30
0.0
 11
175.8423266336512
 21
267.0000000000001
 31
0.0
  0
LINE
  5
2D2
330
1F
100
AcDbEntity
  8
0
  6
Continuous
 62
     3
100
AcDbLine
 10
175.8423266336512
 20
267.0000000000001
 30
0.0
 11
167.9999983740349
 21
267.0000000000001
 31
0.0
  0
LINE
  5
2D3
330
1F
100
AcDbEntity
  8
1
  6
Continuous
 62
     3
100
AcDbLine
 10
169.4999022746223
 20
259.8094375651434
 30
0.0
 11
175.2451678964043
 21
266.322986457445
 31
0.0
  0
LINE
  5
2D4
330
1F
100
AcDbEntity
  8
1
  6
Continuous
 62
     3
100
AcDbLine
 10
166.0
 20
269.0000020143478
 30
0.0
 11
166.0
 21
261.1324240225883
 31
0.0
  0
LINE
  5
2D5
330
1F
100
AcDbEntity
  8
1
  6
Continuous
 62
     3
100
AcDbLine
 10
128.0
 20
242.8675759774117
 30
0.0
 11
128.0
 21
234.9999968792741
 31
0.0
  0
LINE
  5
2D6
330
1F
100
AcDbEntity
  8
1
  6
Continuous
 62
     3
100
AcDbLine
 10
118.7548321035955
 20
237.6770135425551
 30
0.0
 11
124.5000977253778
 21
244.1905624348567
 31
0.0
  0
LINE
  5
2D7
330
1F
100
AcDbEntity
  8
1
  6
Continuous
 62
     3
100
AcDbLine
 10
125.6089562067074
 20
272.0707808587106
 30
0.0
 11
131.1091192358637
 21
275.7362141521026
 31
0.0
  0
LINE
  5
2D8
330
1F
100
AcDbEntity
  8
0
  6
Continuous
 62
     3
100
AcDbLine
 10
129.5872487417563
 20
279.8921908983255
 30
0.0
 11
127.9476507549463
 21
279.949446921682
 31
0.0
  0
LINE
  5
2D9
330
1F
100
AcDbEntity
  8
0
  6
Continuous
 62
     3
100
AcDbLine
 10
164.4127512582439
 20
279.8921908983255
 30
0.0
 11
166.052349245054
 21
279.949446921682
 31
0.0
  0
LINE
  5
2DA
330
1F
100
AcDbEntity
  8
0
  6
Continuous
 62
     3
100
AcDbLine
 10
162.0
 20
276.8048061603233
 30
0.0
 11
162.0
 21
277.3937138307776
 31
0.0
  0
LINE
  5
2DB
330
1F
100
AcDbEntity
  8
0
  6
Continuous
 62
     3
100
AcDbLine
 10
162.0
 20
276.8048061603233
 30
0.0
 11
162.0
 21
277.3937138307776
 31
0.0
  0
LINE
  5
2DC
330
1F
100
AcDbEntity
  8
0
  6
Continuous
 62
     3
100
AcDbLine
 10
126.5
 20
282.4999999999991
 30
0.0
 11
126.5
 21
273.7347631744568
 31
0.0
  0
LINE
  5
2DD
330
1F
100
AcDbEntity
  8
0
  6
Continuous
 62
     3
100
AcDbLine
 10
114.4754264805429
 20
237.0000000000001
 30
0.0
 11
117.2549298289733
 21
237.0000000000001
 31
0.0
  0
LINE
  5
2DE
330
1F
100
AcDbEntity
  8
0
  6
Continuous
 62
     3
100
AcDbLine
 10
179.5245735194572
 20
237.0000000000001
 30
0.0
 11
178.2993019282497
 21
237.0000000000001
 31
0.0
  0
LINE
  5
2DF
330
1F
100
AcDbEntity
  8
0
  6
Continuous
 62
     3
100
AcDbLine
 10
181.2566243270259
 20
236.0000000000001
 30
0.0
 11
182.7
 21
233.5000000000001
 31
0.0
  0
LINE
  5
2E0
330
1F
100
AcDbEntity
  8
0
  6
Continuous
 62
     3
100
AcDbLine
 10
112.7433756729742
 20
236.0000000000001
 30
0.0
 11
111.3
 21
233.5000000000001
 31
0.0
  0
LINE
  5
2E1
330
1F
100
AcDbEntity
  8
0
  6
Continuous
 62
     3
100
AcDbLine
 10
166.0
 20
268.9999987212742
 30
0.0
 11
166.0
 21
278.5762518389417
 31
0.0
  0
LINE
  5
2E2
330
1F
100
AcDbEntity
  8
0
  6
Continuous
 62
     3
100
AcDbLine
 10
167.5
 20
282.4999999999991
 30
0.0
 11
167.5
 21
281.4485331622107
 31
0.0
  0
LINE
  5
2E3
330
1F
100
AcDbEntity
  8
0
  6
Continuous
 62
     3
100
AcDbLine
 10
128.0
 20
227.3284438740354
 30
0.0
 11
128.0
 21
235.0000014441905
 31
0.0
  0
LINE
  5
2E4
330
1F
100
AcDbEntity
  8
0
  6
Continuous
 62
     3
100
AcDbLine
 10
132.5
 20
216.6621186870361
 30
0.0
 11
132.5
 21
220.4538352516223
 31
0.0
  0
LINE
  5
2E5
330
1F
100
AcDbEntity
  8
0
  6
Continuous
 62
     3
100
AcDbLine
 10
112.7433756729742
 20
268.0000000000001
 30
0.0
 11
111.3
 21
270.5000000000001
 31
0.0
  0
LINE
  5
2E6
330
1F
100
AcDbEntity
  8
0
  6
Continuous
 62
     3
100
AcDbLine
 10
114.4754264805429
 20
267.0000000000001
 30
0.0
 11
116.4866824810224
 21
267.0000000000001
 31
0.0
  0
LINE
  5
2E7
330
1F
100
AcDbEntity
  8
0
  6
Continuous
 62
     3
100
AcDbLine
 10
179.5245735194572
 20
267.0000000000001
 30
0.0
 11
176.7450701710267
 21
267.0000000000001
 31
0.0
  0
LINE
  5
2E8
330
1F
100
AcDbEntity
  8
0
  6
Continuous
 62
     3
100
AcDbLine
 10
181.256624327026
 20
268.0000000000001
 30
0.0
 11
182.7
 21
270.5000000000001
 31
0.0
  0
LINE
  5
2E9
330
1F
100
AcDbEntity
  8
1
  6
DOT_CENTER
 62
     1
100
AcDbLine
 10
94.00000000000003
 20
252.0
 30
0.0
 11
200.0
 21
252.0
 31
0.0
  0
LINE
  5
2EA
330
1F
100
AcDbEntity
  8
1
  6
Continuous
 62
     3
100
AcDbLine
 10
126.5
 20
282.5000000000002
 30
0.0
 11
167.5
 21
282.5000000000002
 31
0.0
  0
LINE
  5
2EB
330
1F
100
AcDbEntity
  8
1
  6
Continuous
 62
     3
100
AcDbLine
 10
127.0
 20
283.0000000000002
 30
0.0
 11
126.5
 21
282.5000000000002
 31
0.0
  0
LINE
  5
2EC
330
1F
100
AcDbEntity
  8
1
  6
Continuous
 62
     3
100
AcDbLine
 10
167.0
 20
283.0000000000002
 30
0.0
 11
167.5
 21
282.5000000000002
 31
0.0
  0
LINE
  5
2ED
330
1F
100
AcDbEntity
  8
1
  6
Continuous
 62
     3
100
AcDbLine
 10
128.4
 20
283.4999999999982
 30
0.0
 11
128.4
 21
283.0000000000002
 31
0.0
  0
LINE
  5
2EE
330
1F
100
AcDbEntity
  8
1
  6
Continuous
 62
     3
100
AcDbLine
 10
165.6000000000001
 20
283.4999999999982
 30
0.0
 11
165.6000000000001
 21
283.0000000000002
 31
0.0
  0
LINE
  5
2EF
330
1F
100
AcDbEntity
  8
1
  6
Continuous
 62
     3
100
AcDbLine
 10
167.0
 20
283.0000000000002
 30
0.0
 11
127.0
 21
283.0000000000002
 31
0.0
  0
LINE
  5
2F0
330
1F
100
AcDbEntity
  8
0
  6
DOT_CENTER
 62
     1
100
AcDbLine
 10
174.5
 20
329.9999999999982
 30
0.0
 11
94.00000000000003
 21
329.9999999999982
 31
0.0
  0
LINE
  5
2F1
330
1F
100
AcDbEntity
  8
0
  6
Continuous
 62
     3
100
AcDbLine
 10
122.5
 20
344.0566243270241
 30
0.0
 11
122.4999999999998
 21
343.9999969787557
 31
0.0
  0
LINE
  5
2F2
330
1F
100
AcDbEntity
  8
0
  6
Continuous
 62
     3
100
AcDbLine
 10
96.9999999999998
 20
316.9999999999982
 30
0.0
 11
96.9999999999998
 21
342.9999999999982
 31
0.0
  0
LINE
  5
2F3
330
1F
100
AcDbEntity
  8
0
  6
Continuous
 62
     3
100
AcDbLine
 10
124.0
 20
345.4999999999982
 30
0.0
 11
170.0
 21
345.4999999999982
 31
0.0
  0
LINE
  5
2F4
330
1F
100
AcDbEntity
  8
0
  6
Continuous
 62
     3
100
AcDbLine
 10
98.73205080756864
 20
344.9999999999982
 30
0.0
 11
113.4226497308101
 21
344.9999999999982
 31
0.0
  0
LINE
  5
2F5
330
1F
100
AcDbEntity
  8
0
  6
Continuous
 62
     3
100
AcDbLine
 10
96.9999999999998
 20
342.9999999999982
 30
0.0
 11
97.8660254037841
 21
344.4999999999982
 31
0.0
  0
LINE
  5
2F6
330
1F
100
AcDbEntity
  8
0
  6
Continuous
 62
     3
100
AcDbLine
 10
171.5
 20
344.0566243270241
 30
0.0
 11
171.5
 21
315.9433756729721
 31
0.0
  0
LINE
  5
2F7
330
1F
100
AcDbEntity
  8
0
  6
Continuous
 62
     3
100
AcDbLine
 10
122.4999999999998
 20
316.0000141201149
 30
0.0
 11
122.5
 21
315.9433756729721
 31
0.0
  0
LINE
  5
2F8
330
1F
100
AcDbEntity
  8
0
  6
Continuous
 62
     3
100
AcDbLine
 10
115.7320508075687
 20
317.9999999999982
 30
0.0
 11
114.2886751345946
 21
315.4999999999982
 31
0.0
  0
LINE
  5
2F9
330
1F
100
AcDbEntity
  8
0
  6
Continuous
 62
     3
100
AcDbLine
 10
117.4641016151375
 20
318.9999999999982
 30
0.0
 11
119.5000265388644
 21
318.9999999999982
 31
0.0
  0
LINE
  5
2FA
330
1F
100
AcDbEntity
  8
0
  6
Continuous
 62
     3
100
AcDbLine
 10
115.7320508075687
 20
341.9999999999982
 30
0.0
 11
114.2886751345946
 21
344.4999999999982
 31
0.0
  0
LINE
  5
2FB
330
1F
100
AcDbEntity
  8
0
  6
Continuous
 62
     3
100
AcDbLine
 10
124.0
 20
345.4999999999982
 30
0.0
 11
123.0
 21
344.9226497308085
 31
0.0
  0
LINE
  5
2FC
330
1F
100
AcDbEntity
  8
0
  6
Continuous
 62
     3
100
AcDbLine
 10
170.0
 20
345.4999999999982
 30
0.0
 11
171.0
 21
344.9226497308085
 31
0.0
  0
LINE
  5
2FD
330
1F
100
AcDbEntity
  8
0
  6
Continuous
 62
     3
100
AcDbLine
 10
117.4641016151375
 20
340.9999999999982
 30
0.0
 11
119.5000061185108
 21
340.9999957951291
 31
0.0
  0
LINE
  5
2FE
330
1F
100
AcDbEntity
  8
0
  6
Continuous
 62
     3
100
AcDbLine
 10
98.73205080756864
 20
314.9999999999982
 30
0.0
 11
113.4226497308101
 21
314.9999999999982
 31
0.0
  0
LINE
  5
2FF
330
1F
100
AcDbEntity
  8
0
  6
Continuous
 62
     3
100
AcDbLine
 10
124.0
 20
314.4999999999982
 30
0.0
 11
170.0
 21
314.4999999999982
 31
0.0
  0
LINE
  5
300
330
1F
100
AcDbEntity
  8
0
  6
Continuous
 62
     3
100
AcDbLine
 10
170.0
 20
314.4999999999982
 30
0.0
 11
171.0
 21
315.0773502691878
 31
0.0
  0
LINE
  5
301
330
1F
100
AcDbEntity
  8
0
  6
Continuous
 62
     3
100
AcDbLine
 10
124.0
 20
314.4999999999982
 30
0.0
 11
123.0
 21
315.0773502691878
 31
0.0
  0
LINE
  5
302
330
1F
100
AcDbEntity
  8
0
  6
Continuous
 62
     3
100
AcDbLine
 10
96.9999999999998
 20
316.9999999999982
 30
0.0
 11
97.8660254037841
 21
315.4999999999982
 31
0.0
  0
LINE
  5
303
330
1F
100
AcDbEntity
  8
1
  6
Continuous
 62
     4
100
AcDbLine
 10
116.5980762113532
 20
319.4999999999982
 30
0.0
 11
116.5980762113532
 21
340.5000017886486
 31
0.0
  0
LINE
  5
304
330
1F
100
AcDbEntity
  8
1
  6
DOT_CENTER
 62
     1
100
AcDbLine
 10
147.0
 20
179.9999997744018
 30
0.0
 11
147.0
 21
448.5000442299667
 31
0.0
  0
LINE
  5
305
330
1F
100
AcDbEntity
  8
1
  6
Continuous
 62
     4
100
AcDbLine
 10
177.401923788647
 20
309.5000017886486
 30
0.0
 11
177.401923788647
 21
288.4999999999982
 31
0.0
  0
LINE
  5
306
330
1F
100
AcDbEntity
  8
0
  6
Continuous
 62
     3
100
AcDbLine
 10
196.133974596216
 20
284.4999999999982
 30
0.0
 11
197.0000000000003
 21
285.9999999999982
 31
0.0
  0
LINE
  5
307
330
1F
100
AcDbEntity
  8
0
  6
Continuous
 62
     3
100
AcDbLine
 10
171.0
 20
284.0773502691878
 30
0.0
 11
170.0
 21
283.4999999999982
 31
0.0
  0
LINE
  5
308
330
1F
100
AcDbEntity
  8
0
  6
Continuous
 62
     3
100
AcDbLine
 10
123.0
 20
284.0773502691878
 30
0.0
 11
124.0
 21
283.4999999999982
 31
0.0
  0
LINE
  5
309
330
1F
100
AcDbEntity
  8
0
  6
Continuous
 62
     3
100
AcDbLine
 10
124.0
 20
283.4999999999982
 30
0.0
 11
170.0
 21
283.4999999999982
 31
0.0
  0
LINE
  5
30A
330
1F
100
AcDbEntity
  8
0
  6
Continuous
 62
     3
100
AcDbLine
 10
180.57735026919
 20
283.9999999999982
 30
0.0
 11
195.2679491924314
 21
283.9999999999982
 31
0.0
  0
LINE
  5
30B
330
1F
100
AcDbEntity
  8
0
  6
Continuous
 62
     3
100
AcDbLine
 10
174.4999938814893
 20
309.9999957951291
 30
0.0
 11
176.5358983848626
 21
309.9999999999982
 31
0.0
  0
LINE
  5
30C
330
1F
100
AcDbEntity
  8
0
  6
Continuous
 62
     3
100
AcDbLine
 10
123.0
 20
313.9226497308085
 30
0.0
 11
124.0
 21
314.4999999999982
 31
0.0
  0
LINE
  5
30D
330
1F
100
AcDbEntity
  8
0
  6
Continuous
 62
     3
100
AcDbLine
 10
171.0
 20
313.9226497308085
 30
0.0
 11
170.0
 21
314.4999999999982
 31
0.0
  0
LINE
  5
30E
330
1F
100
AcDbEntity
  8
0
  6
Continuous
 62
     3
100
AcDbLine
 10
179.7113248654055
 20
313.4999999999982
 30
0.0
 11
178.2679491924314
 21
310.9999999999982
 31
0.0
  0
LINE
  5
30F
330
1F
100
AcDbEntity
  8
0
  6
Continuous
 62
     3
100
AcDbLine
 10
174.4999734611356
 20
287.9999999999982
 30
0.0
 11
176.5358983848626
 21
287.9999999999982
 31
0.0
  0
LINE
  5
310
330
1F
100
AcDbEntity
  8
0
  6
Continuous
 62
     3
100
AcDbLine
 10
179.7113248654055
 20
284.4999999999982
 30
0.0
 11
178.2679491924314
 21
286.9999999999982
 31
0.0
  0
LINE
  5
311
330
1F
100
AcDbEntity
  8
0
  6
Continuous
 62
     3
100
AcDbLine
 10
171.5
 20
284.9433756729721
 30
0.0
 11
171.5000000000003
 21
285.0000141201149
 31
0.0
  0
LINE
  5
312
330
1F
100
AcDbEntity
  8
0
  6
Continuous
 62
     3
100
AcDbLine
 10
122.5
 20
284.9433756729721
 30
0.0
 11
122.5
 21
313.0566243270241
 31
0.0
  0
LINE
  5
313
330
1F
100
AcDbEntity
  8
0
  6
Continuous
 62
     3
100
AcDbLine
 10
196.133974596216
 20
313.4999999999982
 30
0.0
 11
197.0000000000003
 21
311.9999999999982
 31
0.0
  0
LINE
  5
314
330
1F
100
AcDbEntity
  8
0
  6
Continuous
 62
     3
100
AcDbLine
 10
180.57735026919
 20
313.9999999999982
 30
0.0
 11
195.2679491924314
 21
313.9999999999982
 31
0.0
  0
LINE
  5
315
330
1F
100
AcDbEntity
  8
0
  6
Continuous
 62
     3
100
AcDbLine
 10
124.0
 20
314.4999999999982
 30
0.0
 11
170.0
 21
314.4999999999982
 31
0.0
  0
LINE
  5
316
330
1F
100
AcDbEntity
  8
0
  6
Continuous
 62
     3
100
AcDbLine
 10
197.0000000000003
 20
311.9999999999982
 30
0.0
 11
197.0000000000003
 21
285.9999999999982
 31
0.0
  0
LINE
  5
317
330
1F
100
AcDbEntity
  8
0
  6
Continuous
 62
     3
100
AcDbLine
 10
171.5000000000003
 20
312.9999969787557
 30
0.0
 11
171.5
 21
313.0566243270241
 31
0.0
  0
LINE
  5
318
330
1F
100
AcDbEntity
  8
0
  6
DOT_CENTER
 62
     1
100
AcDbLine
 10
200.0
 20
298.9999999999982
 30
0.0
 11
119.5
 21
298.9999999999982
 31
0.0
  0
LINE
  5
319
330
1F
100
AcDbEntity
  8
0
  6
Continuous
 62
     3
100
AcDbLine
 10
126.8045429321817
 20
345.4999999999982
 30
0.0
 11
126.5
 21
345.4999999999982
 31
0.0
  0
LINE
  5
31A
330
1F
100
AcDbEntity
  8
0
  6
Continuous
 62
     3
100
AcDbLine
 10
126.5
 20
363.6339745962146
 30
0.0
 11
126.5
 21
345.4999999999982
 31
0.0
  0
LINE
  5
31B
330
1F
100
AcDbEntity
  8
0
  6
Continuous
 62
     3
100
AcDbLine
 10
167.5
 20
345.4999999999982
 30
0.0
 11
167.1954570678184
 21
345.4999999999982
 31
0.0
  0
LINE
  5
31C
330
1F
100
AcDbEntity
  8
0
  6
Continuous
 62
     3
100
AcDbLine
 10
167.5
 20
363.6339745962146
 30
0.0
 11
167.5
 21
345.4999999999982
 31
0.0
  0
LINE
  5
31D
330
1F
100
AcDbEntity
  8
0
  6
Continuous
 62
     3
100
AcDbLine
 10
167.1954570678184
 20
345.4999999999982
 30
0.0
 11
165.5
 21
345.4999999999982
 31
0.0
  0
LINE
  5
31E
330
1F
100
AcDbEntity
  8
0
  6
Continuous
 62
     3
100
AcDbLine
 10
128.5
 20
345.4999999999982
 30
0.0
 11
126.8045429321817
 21
345.4999999999982
 31
0.0
  0
LINE
  5
31F
330
1F
100
AcDbEntity
  8
0
  6
Continuous
 62
     3
100
AcDbLine
 10
139.9510639100642
 20
345.4999999999982
 30
0.0
 11
133.8534790221175
 21
345.4999999999982
 31
0.0
  0
LINE
  5
320
330
1F
100
AcDbEntity
  8
0
  6
Continuous
 62
     3
100
AcDbLine
 10
160.1465209778825
 20
345.4999999999982
 30
0.0
 11
154.0489360899359
 21
345.4999999999982
 31
0.0
  0
LINE
  5
321
330
1F
100
AcDbEntity
  8
0
  6
Continuous
 62
     3
100
AcDbLine
 10
154.0489360899359
 20
345.4999999999982
 30
0.0
 11
139.9510639100642
 21
345.4999999999982
 31
0.0
  0
LINE
  5
322
330
1F
100
AcDbEntity
  8
0
  6
Continuous
 62
     3
100
AcDbLine
 10
133.8534790221175
 20
345.4999999999982
 30
0.0
 11
128.5
 21
345.4999999999982
 31
0.0
  0
LINE
  5
323
330
1F
100
AcDbEntity
  8
0
  6
Continuous
 62
     3
100
AcDbLine
 10
165.5
 20
345.4999999999982
 30
0.0
 11
160.1465209778825
 21
345.4999999999982
 31
0.0
  0
LINE
  5
324
330
1F
100
AcDbEntity
  8
0
  6
Continuous
 62
     3
100
AcDbLine
 10
165.75
 20
364.4999999999992
 30
0.0
 11
128.25
 21
364.4999999999992
 31
0.0
  0
LINE
  5
325
330
1F
100
AcDbEntity
  8
2
  6
Continuous
 62
     3
100
AcDbLine
 10
142.25
 20
425.4999999999993
 30
0.0
 11
142.25
 21
407.4999991915994
 31
0.0
  0
LINE
  5
326
330
1F
100
AcDbEntity
  8
2
  6
Continuous
 62
     3
100
AcDbLine
 10
151.75
 20
407.4999991915994
 30
0.0
 11
151.75
 21
425.4999999999993
 31
0.0
  0
LINE
  5
327
330
1F
100
AcDbEntity
  8
1
  6
Continuous
 62
     3
100
AcDbLine
 10
159.5
 20
182.9999997744018
 30
0.0
 11
134.5
 21
182.9999997744018
 31
0.0
  0
LINE
  5
328
330
1F
100
AcDbEntity
  8
1
  6
Continuous
 62
     3
100
AcDbLine
 10
127.0000003759996
 20
365.499999981199
 30
0.0
 11
128.0000003571999
 21
364.4999999999992
 31
0.0
  0
LINE
  5
329
330
1F
100
AcDbEntity
  8
1
  6
Continuous
 62
     3
100
AcDbLine
 10
127.0000003759997
 20
366.8589838042718
 30
0.0
 11
127.0000003759996
 21
365.499999981199
 31
0.0
  0
LINE
  5
32A
330
1F
100
AcDbEntity
  8
1
  6
Continuous
 62
     3
100
AcDbLine
 10
128.5247917332659
 20
382.4999996615989
 30
0.0
 11
128.5247917332659
 21
369.4999999059993
 31
0.0
  0
LINE
  5
32B
330
1F
100
AcDbEntity
  8
1
  6
Continuous
 62
     3
100
AcDbLine
 10
137.0000001879999
 20
405.4999992291988
 30
0.0
 11
137.0000001879999
 21
389.0341331574001
 31
0.0
  0
LINE
  5
32C
330
1F
100
AcDbEntity
  8
1
  6
Continuous
 62
     3
100
AcDbLine
 10
154.9999998495996
 20
407.4999991915994
 30
0.0
 11
139.0000001504
 21
407.4999991915994
 31
0.0
  0
LINE
  5
32D
330
1F
100
AcDbEntity
  8
1
  6
Continuous
 62
     3
100
AcDbLine
 10
156.9999998119998
 20
389.0341331574001
 30
0.0
 11
156.9999998119998
 21
405.4999992291988
 31
0.0
  0
LINE
  5
32E
330
1F
100
AcDbEntity
  8
1
  6
Continuous
 62
     3
100
AcDbLine
 10
165.4752082667338
 20
382.4999996615989
 30
0.0
 11
160.3315726952083
 21
384.3207107988984
 31
0.0
  0
LINE
  5
32F
330
1F
100
AcDbEntity
  8
1
  6
Continuous
 62
     3
100
AcDbLine
 10
165.4752082667338
 20
369.4999999059993
 30
0.0
 11
165.4752082667338
 21
382.4999996615989
 31
0.0
  0
LINE
  5
330
330
1F
100
AcDbEntity
  8
1
  6
Continuous
 62
     3
100
AcDbLine
 10
166.9999996239999
 20
365.499999981199
 30
0.0
 11
166.9999996239999
 21
366.8589838042718
 31
0.0
  0
LINE
  5
331
330
1F
100
AcDbEntity
  8
1
  6
Continuous
 62
     3
100
AcDbLine
 10
165.9999996427996
 20
364.4999999999992
 30
0.0
 11
166.9999996239999
 21
365.499999981199
 31
0.0
  0
LINE
  5
332
330
1F
100
AcDbEntity
  8
1
  6
Continuous
 62
     3
100
AcDbLine
 10
147.0
 20
364.4999999999992
 30
0.0
 11
165.9999996427996
 21
364.4999999999992
 31
0.0
  0
LINE
  5
333
330
1F
100
AcDbEntity
  8
1
  6
Continuous
 62
     3
100
AcDbLine
 10
128.0000003571999
 20
364.4999999999992
 30
0.0
 11
147.0
 21
364.4999999999992
 31
0.0
  0
LINE
  5
334
330
1F
100
AcDbEntity
  8
1
  6
Continuous
 62
     3
100
AcDbLine
 10
133.6684273047913
 20
384.3207107988994
 30
0.0
 11
128.5247917332659
 21
382.4999996615989
 31
0.0
  0
LINE
  5
335
330
1F
100
AcDbEntity
  8
1
  6
Continuous
 62
     3
100
AcDbLine
 10
165.4752082667338
 20
369.4999999059993
 30
0.0
 11
128.4752082667338
 21
369.4999999059993
 31
0.0
  0
LINE
  5
336
330
1F
100
AcDbEntity
  8
1
  6
Continuous
 62
     3
100
AcDbLine
 10
166.9999996239999
 20
365.499999981199
 30
0.0
 11
126.9999996239999
 21
365.499999981199
 31
0.0
  0
LINE
  5
337
330
1F
100
AcDbEntity
  8
1
  6
Continuous
 62
     3
100
AcDbLine
 10
156.2376041333669
 20
382.4999996615989
 30
0.0
 11
156.2376041333669
 21
369.4999999059993
 31
0.0
  0
LINE
  5
338
330
1F
100
AcDbEntity
  8
1
  6
Continuous
 62
     3
100
AcDbLine
 10
137.7623958666327
 20
382.4999996615989
 30
0.0
 11
137.7623958666327
 21
369.4999999059993
 31
0.0
  0
LINE
  5
341
330
1F
100
AcDbEntity
  8
3
  6
PHANTOM
 62
     4
100
AcDbLine
 10
116.0
 20
414.9999999999993
 30
0.0
 11
116.0
 21
423.0447385184633
 31
0.0
  0
LINE
  5
342
330
1F
100
AcDbEntity
  8
3
  6
PHANTOM
 62
     4
100
AcDbLine
 10
120.2559826922316
 20
428.7856795240994
 30
0.0
 11
133.7733261217633
 21
432.8920587523494
 31
0.0
  0
LINE
  5
343
330
1F
100
AcDbEntity
  8
3
  6
Continuous
 62
     3
100
AcDbLine
 10
116.0
 20
427.4999999999993
 30
0.0
 11
116.0
 21
435.5447385184633
 31
0.0
  0
LINE
  5
344
330
1F
100
AcDbEntity
  8
3
  6
Continuous
 62
     3
100
AcDbLine
 10
120.2559826922318
 20
441.2856795240994
 30
0.0
 11
133.7733261217633
 21
445.3920587523494
 31
0.0
  0
LINE
  5
345
330
1F
100
AcDbEntity
  8
3
  6
PHANTOM
 62
     4
100
AcDbLine
 10
159.4999999999995
 20
432.9999999999993
 30
0.0
 11
134.5
 21
432.9999999999993
 31
0.0
  0
LINE
  5
346
330
1F
100
AcDbEntity
  8
3
  6
PHANTOM
 62
     4
100
AcDbLine
 10
173.7440173077674
 20
428.7856795240994
 30
0.0
 11
160.2266738782375
 21
432.8920587523494
 31
0.0
  0
LINE
  5
347
330
1F
100
AcDbEntity
  8
3
  6
PHANTOM
 62
     4
100
AcDbLine
 10
177.9999999999995
 20
414.9999999999993
 30
0.0
 11
177.9999999999995
 21
423.0447385184633
 31
0.0
  0
LINE
  5
348
330
1F
100
AcDbEntity
  8
3
  6
PHANTOM
 62
     4
100
AcDbLine
 10
118.0
 20
412.9999999999993
 30
0.0
 11
175.9999999999995
 21
412.9999999999993
 31
0.0
  0
LINE
  5
349
330
1F
100
AcDbEntity
  8
3
  6
Continuous
 62
     3
100
AcDbLine
 10
159.4999999999995
 20
445.4999999999993
 30
0.0
 11
134.1286461819945
 21
445.4999999999993
 31
0.0
  0
LINE
  5
34A
330
1F
100
AcDbEntity
  8
3
  6
Continuous
 62
     3
100
AcDbLine
 10
173.7440173077675
 20
441.2856795240994
 30
0.0
 11
160.2266738782375
 21
445.3920587523494
 31
0.0
  0
LINE
  5
34B
330
1F
100
AcDbEntity
  8
3
  6
Continuous
 62
     3
100
AcDbLine
 10
177.9999999999995
 20
427.4999999999993
 30
0.0
 11
177.9999999999995
 21
435.5447385184633
 31
0.0
  0
LINE
  5
34C
330
1F
100
AcDbEntity
  8
3
  6
Continuous
 62
     3
100
AcDbLine
 10
118.0
 20
425.4999999999993
 30
0.0
 11
175.9999999999995
 21
425.4999999999993
 31
0.0
  0
LINE
  5
34D
330
1F
100
AcDbEntity
  8
0
  6
Continuous
 62
     3
100
AcDbLine
 10
97.00000000000003
 20
235.0
 30
0.0
 11
97.00000000000003
 21
269.0
 31
0.0
  0
LINE
  5
34E
330
1F
100
AcDbEntity
  8
0
  6
Continuous
 62
     3
100
AcDbLine
 10
111.3
 20
270.5000000000001
 30
0.0
 11
97.86602540378456
 21
270.5
 31
0.0
  0
LINE
  5
34F
330
1F
100
AcDbEntity
  8
1
  6
Continuous
 62
     3
100
AcDbLine
 10
97.00000000000003
 20
269.0
 30
0.0
 11
97.86602540378456
 21
270.5
 31
0.0
  0
LINE
  5
350
330
1F
100
AcDbEntity
  8
1
  6
Continuous
 62
     3
100
AcDbLine
 10
97.00000000000003
 20
235.0
 30
0.0
 11
97.86602540378456
 21
233.5
 31
0.0
  0
LINE
  5
351
330
1F
100
AcDbEntity
  8
0
  6
Continuous
 62
     3
100
AcDbLine
 10
111.3
 20
233.5000000000001
 30
0.0
 11
97.86602540378456
 21
233.5
 31
0.0
  0
LINE
  5
352
330
1F
100
AcDbEntity
  8
1
  6
Continuous
 62
     3
100
AcDbLine
 10
97.86602540378456
 20
270.5
 30
0.0
 11
97.86602540378456
 21
270.1554445662277
 31
0.0
  0
LINE
  5
353
330
1F
100
AcDbEntity
  8
1
  6
Continuous
 62
     3
100
AcDbLine
 10
97.86602540378456
 20
264.1554445662277
 30
0.0
 11
97.86602540378456
 21
258.0
 31
0.0
  0
LINE
  5
354
330
1F
100
AcDbEntity
  8
1
  6
Continuous
 62
     3
100
AcDbLine
 10
97.86602540378456
 20
246.0
 30
0.0
 11
97.86602540378456
 21
239.8445554337721
 31
0.0
  0
LINE
  5
355
330
1F
100
AcDbEntity
  8
1
  6
Continuous
 62
     3
100
AcDbLine
 10
97.86602540378456
 20
233.8445554337724
 30
0.0
 11
97.86602540378456
 21
233.5
 31
0.0
  0
LINE
  5
356
330
1F
100
AcDbEntity
  8
1
  6
Continuous
 62
     3
100
AcDbLine
 10
111.3
 20
233.8445554337724
 30
0.0
 11
111.3
 21
233.5000000000001
 31
0.0
  0
LINE
  5
357
330
1F
100
AcDbEntity
  8
1
  6
Continuous
 62
     3
100
AcDbLine
 10
111.3
 20
239.8445554337721
 30
0.0
 11
111.3
 21
246.0
 31
0.0
  0
LINE
  5
358
330
1F
100
AcDbEntity
  8
1
  6
Continuous
 62
     3
100
AcDbLine
 10
111.3
 20
258.0
 30
0.0
 11
111.3
 21
264.1554445662277
 31
0.0
  0
LINE
  5
359
330
1F
100
AcDbEntity
  8
1
  6
Continuous
 62
     3
100
AcDbLine
 10
111.3
 20
270.1554445662277
 30
0.0
 11
111.3
 21
270.5000000000001
 31
0.0
  0
LINE
  5
35A
330
1F
100
AcDbEntity
  8
1
  6
Continuous
 62
     3
100
AcDbLine
 10
97.86602540378456
 20
264.1554445662277
 30
0.0
 11
111.3
 21
264.1554445662277
 31
0.0
  0
LINE
  5
35B
330
1F
100
AcDbEntity
  8
1
  6
Continuous
 62
     3
100
AcDbLine
 10
111.3
 20
258.0
 30
0.0
 11
97.86602540378456
 21
258.0
 31
0.0
  0
LINE
  5
35C
330
1F
100
AcDbEntity
  8
1
  6
Continuous
 62
     3
100
AcDbLine
 10
97.86602540378456
 20
246.0
 30
0.0
 11
111.3
 21
246.0
 31
0.0
  0
LINE
  5
35D
330
1F
100
AcDbEntity
  8
1
  6
Continuous
 62
     3
100
AcDbLine
 10
111.3
 20
239.8445554337721
 30
0.0
 11
97.86602540378456
 21
239.8445554337721
 31
0.0
  0
LINE
  5
35E
330
1F
100
AcDbEntity
  8
1
  6
Continuous
 62
     3
100
AcDbLine
 10
97.86602540378456
 20
233.8445554337724
 30
0.0
 11
111.3
 21
233.8445554337724
 31
0.0
  0
LINE
  5
35F
330
1F
100
AcDbEntity
  8
1
  6
Continuous
 62
     3
100
AcDbLine
 10
182.7
 20
233.8445554337724
 30
0.0
 11
196.1339745962155
 21
233.8445554337724
 31
0.0
  0
LINE
  5
360
330
1F
100
AcDbEntity
  8
1
  6
Continuous
 62
     3
100
AcDbLine
 10
196.1339745962155
 20
239.8445554337721
 30
0.0
 11
182.7
 21
239.8445554337721
 31
0.0
  0
LINE
  5
361
330
1F
100
AcDbEntity
  8
1
  6
Continuous
 62
     3
100
AcDbLine
 10
182.7
 20
246.0
 30
0.0
 11
196.1339745962155
 21
246.0
 31
0.0
  0
LINE
  5
362
330
1F
100
AcDbEntity
  8
1
  6
Continuous
 62
     3
100
AcDbLine
 10
196.1339745962155
 20
258.0
 30
0.0
 11
182.7
 21
258.0
 31
0.0
  0
LINE
  5
363
330
1F
100
AcDbEntity
  8
1
  6
Continuous
 62
     3
100
AcDbLine
 10
182.7
 20
264.1554445662277
 30
0.0
 11
196.1339745962155
 21
264.1554445662277
 31
0.0
  0
LINE
  5
364
330
1F
100
AcDbEntity
  8
1
  6
Continuous
 62
     3
100
AcDbLine
 10
182.7
 20
270.5000000000001
 30
0.0
 11
182.7
 21
270.1554445662277
 31
0.0
  0
LINE
  5
365
330
1F
100
AcDbEntity
  8
1
  6
Continuous
 62
     3
100
AcDbLine
 10
182.7
 20
264.1554445662277
 30
0.0
 11
182.7
 21
258.0
 31
0.0
  0
LINE
  5
366
330
1F
100
AcDbEntity
  8
1
  6
Continuous
 62
     3
100
AcDbLine
 10
182.7
 20
246.0
 30
0.0
 11
182.7
 21
239.8445554337721
 31
0.0
  0
LINE
  5
367
330
1F
100
AcDbEntity
  8
1
  6
Continuous
 62
     3
100
AcDbLine
 10
182.7
 20
233.5917517095362
 30
0.0
 11
182.7
 21
233.8445554337724
 31
0.0
  0
LINE
  5
368
330
1F
100
AcDbEntity
  8
1
  6
Continuous
 62
     3
100
AcDbLine
 10
196.1339745962155
 20
233.5
 30
0.0
 11
196.1339745962155
 21
233.8445554337724
 31
0.0
  0
LINE
  5
369
330
1F
100
AcDbEntity
  8
1
  6
Continuous
 62
     3
100
AcDbLine
 10
196.1339745962155
 20
239.8445554337721
 30
0.0
 11
196.1339745962155
 21
246.0
 31
0.0
  0
LINE
  5
36A
330
1F
100
AcDbEntity
  8
1
  6
Continuous
 62
     3
100
AcDbLine
 10
196.1339745962155
 20
258.0
 30
0.0
 11
196.1339745962155
 21
264.1554445662277
 31
0.0
  0
LINE
  5
36B
330
1F
100
AcDbEntity
  8
1
  6
Continuous
 62
     3
100
AcDbLine
 10
196.1339745962155
 20
270.1554445662277
 30
0.0
 11
196.1339745962155
 21
270.5
 31
0.0
  0
LINE
  5
36C
330
1F
100
AcDbEntity
  8
0
  6
Continuous
 62
     3
100
AcDbLine
 10
196.1339745962155
 20
233.5
 30
0.0
 11
182.7
 21
233.5000000000001
 31
0.0
  0
LINE
  5
36D
330
1F
100
AcDbEntity
  8
1
  6
Continuous
 62
     3
100
AcDbLine
 10
196.1339745962155
 20
233.5
 30
0.0
 11
197.0
 21
235.0
 31
0.0
  0
LINE
  5
36E
330
1F
100
AcDbEntity
  8
1
  6
Continuous
 62
     3
100
AcDbLine
 10
196.1339745962155
 20
270.5
 30
0.0
 11
197.0
 21
269.0
 31
0.0
  0
LINE
  5
36F
330
1F
100
AcDbEntity
  8
0
  6
Continuous
 62
     3
100
AcDbLine
 10
196.1339745962155
 20
270.5
 30
0.0
 11
182.7
 21
270.5000000000001
 31
0.0
  0
LINE
  5
370
330
1F
100
AcDbEntity
  8
0
  6
Continuous
 62
     3
100
AcDbLine
 10
197.0
 20
269.0
 30
0.0
 11
197.0
 21
235.0
 31
0.0
  0
LINE
  5
371
330
1F
100
AcDbEntity
  8
1
  6
Continuous
 62
     3
100
AcDbLine
 10
196.1339745962155
 20
270.1554445662277
 30
0.0
 11
182.7
 21
270.1554445662277
 31
0.0
  0
LINE
  5
372
330
1F
100
AcDbEntity
  8
1
  6
Continuous
 62
     3
100
AcDbLine
 10
97.86602540378456
 20
270.1554445662277
 30
0.0
 11
111.3
 21
270.1554445662277
 31
0.0
  0
LINE
  5
373
330
1F
100
AcDbEntity
  8
1
  6
Continuous
 62
     3
100
AcDbLine
 10
180.0000000000003
 20
308.4317732494131
 30
0.0
 11
195.8452994616212
 21
308.4317732494131
 31
0.0
  0
LINE
  5
374
330
1F
100
AcDbEntity
  8
1
  6
Continuous
 62
     3
100
AcDbLine
 10
180.0000000000003
 20
304.3851648071327
 30
0.0
 11
180.0000000000003
 21
308.4317732494131
 31
0.0
  0
LINE
  5
375
330
1F
100
AcDbEntity
  8
1
  6
Continuous
 62
     3
100
AcDbLine
 10
180.0000000000003
 20
304.3851648071327
 30
0.0
 11
195.8452994616212
 21
304.3851648071327
 31
0.0
  0
LINE
  5
376
330
1F
100
AcDbEntity
  8
1
  6
Continuous
 62
     3
100
AcDbLine
 10
180.0006248477273
 20
313.8169380565475
 30
0.0
 11
195.8446746138944
 21
313.8169380565475
 31
0.0
  0
LINE
  5
377
330
1F
100
AcDbEntity
  8
1
  6
Continuous
 62
     3
100
AcDbLine
 10
195.8452994616212
 20
304.3851648071327
 30
0.0
 11
195.8452994616212
 21
308.4317732494131
 31
0.0
  0
LINE
  5
378
330
1F
100
AcDbEntity
  8
1
  6
Continuous
 62
     3
100
AcDbLine
 10
195.8452994616212
 20
289.5682267505833
 30
0.0
 11
195.8452994616212
 21
293.6148351928636
 31
0.0
  0
LINE
  5
379
330
1F
100
AcDbEntity
  8
1
  6
Continuous
 62
     3
100
AcDbLine
 10
180.0000000000003
 20
293.6148351928636
 30
0.0
 11
195.8452994616212
 21
293.6148351928636
 31
0.0
  0
LINE
  5
37A
330
1F
100
AcDbEntity
  8
1
  6
Continuous
 62
     3
100
AcDbLine
 10
180.0000000000003
 20
289.5682267505833
 30
0.0
 11
195.8452994616212
 21
289.5682267505833
 31
0.0
  0
LINE
  5
37B
330
1F
100
AcDbEntity
  8
1
  6
Continuous
 62
     3
100
AcDbLine
 10
180.0000000000003
 20
289.5682267505833
 30
0.0
 11
180.0000000000003
 21
293.6148351928636
 31
0.0
  0
LINE
  5
37C
330
1F
100
AcDbEntity
  8
1
  6
Continuous
 62
     3
100
AcDbLine
 10
180.0000000000003
 20
284.1830619434487
 30
0.0
 11
195.8446746138941
 21
284.1830619434487
 31
0.0
  0
LINE
  5
37D
330
1F
100
AcDbEntity
  8
1
  6
Continuous
 62
     3
100
AcDbLine
 10
98.15532538610594
 20
315.1830619434487
 30
0.0
 11
113.9999999999998
 21
315.1830619434487
 31
0.0
  0
LINE
  5
37E
330
1F
100
AcDbEntity
  8
1
  6
Continuous
 62
     3
100
AcDbLine
 10
113.9999999999998
 20
324.6148351928636
 30
0.0
 11
113.9999999999998
 21
320.5682267505833
 31
0.0
  0
LINE
  5
37F
330
1F
100
AcDbEntity
  8
1
  6
Continuous
 62
     3
100
AcDbLine
 10
98.15470053837888
 20
320.5682267505833
 30
0.0
 11
113.9999999999998
 21
320.5682267505833
 31
0.0
  0
LINE
  5
380
330
1F
100
AcDbEntity
  8
1
  6
Continuous
 62
     3
100
AcDbLine
 10
98.15470053837888
 20
324.6148351928636
 30
0.0
 11
113.9999999999998
 21
324.6148351928636
 31
0.0
  0
LINE
  5
381
330
1F
100
AcDbEntity
  8
1
  6
Continuous
 62
     3
100
AcDbLine
 10
98.15470053837888
 20
324.6148351928636
 30
0.0
 11
98.15470053837888
 21
320.5682267505833
 31
0.0
  0
LINE
  5
382
330
1F
100
AcDbEntity
  8
1
  6
Continuous
 62
     3
100
AcDbLine
 10
98.15470053837888
 20
339.4317732494131
 30
0.0
 11
98.15470053837888
 21
335.3851648071327
 31
0.0
  0
LINE
  5
383
330
1F
100
AcDbEntity
  8
1
  6
Continuous
 62
     3
100
AcDbLine
 10
98.15532538610572
 20
344.8169380565475
 30
0.0
 11
113.9993751522727
 21
344.8169380565475
 31
0.0
  0
LINE
  5
384
330
1F
100
AcDbEntity
  8
1
  6
Continuous
 62
     3
100
AcDbLine
 10
98.15470053837888
 20
335.3851648071327
 30
0.0
 11
113.9999999999998
 21
335.3851648071327
 31
0.0
  0
LINE
  5
385
330
1F
100
AcDbEntity
  8
1
  6
Continuous
 62
     3
100
AcDbLine
 10
113.9999999999998
 20
339.4317732494131
 30
0.0
 11
113.9999999999998
 21
335.3851648071327
 31
0.0
  0
LINE
  5
386
330
1F
100
AcDbEntity
  8
1
  6
Continuous
 62
     3
100
AcDbLine
 10
98.15470053837888
 20
339.4317732494131
 30
0.0
 11
113.9999999999998
 21
339.4317732494131
 31
0.0
  0
LINE
  5
387
330
1F
100
AcDbEntity
  8
5
  6
Continuous
 62
     3
100
AcDbLine
 10
166.0
 20
364.4999999999992
 30
0.0
 11
167.5
 21
363.6339745962146
 31
0.0
  0
LINE
  5
388
330
1F
100
AcDbEntity
  8
5
  6
Continuous
 62
     3
100
AcDbLine
 10
126.5
 20
363.6339745962146
 30
0.0
 11
128.0
 21
364.4999999999992
 31
0.0
  0
LINE
  5
389
330
1F
100
AcDbEntity
  8
1
  6
Continuous
 62
     3
100
AcDbLine
 10
166.5705080756888
 20
363.6339745962146
 30
0.0
 11
166.5705080756888
 21
345.4999999999982
 31
0.0
  0
LINE
  5
38A
330
1F
100
AcDbEntity
  8
1
  6
Continuous
 62
     3
100
AcDbLine
 10
162.0705080756888
 20
363.6339745962146
 30
0.0
 11
162.0705080756887
 21
345.4999999999982
 31
0.0
  0
LINE
  5
38B
330
1F
100
AcDbEntity
  8
1
  6
Continuous
 62
     3
100
AcDbLine
 10
151.5
 20
363.6339745962146
 30
0.0
 11
151.5
 21
345.4999999999982
 31
0.0
  0
LINE
  5
38C
330
1F
100
AcDbEntity
  8
1
  6
Continuous
 62
     3
100
AcDbLine
 10
142.5
 20
363.6339745962146
 30
0.0
 11
142.5
 21
345.4999999999982
 31
0.0
  0
LINE
  5
38D
330
1F
100
AcDbEntity
  8
1
  6
Continuous
 62
     3
100
AcDbLine
 10
131.9294919243112
 20
363.6339745962146
 30
0.0
 11
131.9294919243112
 21
345.4999999999982
 31
0.0
  0
LINE
  5
38E
330
1F
100
AcDbEntity
  8
1
  6
Continuous
 62
     3
100
AcDbLine
 10
127.4294919243113
 20
363.6339745962146
 30
0.0
 11
127.4294919243113
 21
345.4999999999982
 31
0.0
  0
LINE
  5
38F
330
1F
100
AcDbEntity
  8
1
  6
Continuous
 62
     3
100
AcDbLine
 10
127.4294919243113
 20
363.6339745962146
 30
0.0
 11
126.5
 21
363.6339745962146
 31
0.0
  0
LINE
  5
390
330
1F
100
AcDbEntity
  8
1
  6
Continuous
 62
     3
100
AcDbLine
 10
142.5
 20
363.6339745962146
 30
0.0
 11
131.9294919243112
 21
363.6339745962146
 31
0.0
  0
LINE
  5
391
330
1F
100
AcDbEntity
  8
1
  6
Continuous
 62
     3
100
AcDbLine
 10
151.5
 20
363.6339745962146
 30
0.0
 11
162.0705080756888
 21
363.6339745962146
 31
0.0
  0
LINE
  5
392
330
1F
100
AcDbEntity
  8
1
  6
Continuous
 62
     3
100
AcDbLine
 10
166.5705080756888
 20
363.6339745962146
 30
0.0
 11
167.5
 21
363.6339745962146
 31
0.0
  0
ARC
  5
393
330
1F
100
AcDbEntity
  8
1
  6
Continuous
 62
     3
100
AcDbCircle
 10
191.4069077533728
 20
532.0000000000011
 30
0.0
 40
5.015741977437815
100
AcDbArc
 50
332.2382768353553
 51
27.76172316464586
  0
ARC
  5
394
330
1F
100
AcDbEntity
  8
1
  6
Continuous
 62
     3
100
AcDbCircle
 10
102.5930922466273
 20
532.0000000000011
 30
0.0
 40
5.015741977437918
100
AcDbArc
 50
152.2382768353544
 51
207.7617231646444
  0
ARC
  5
395
330
1F
100
AcDbEntity
  8
1
  6
Continuous
 62
     3
100
AcDbCircle
 10
180.8930915761122
 20
519.1681552367268
 30
0.0
 40
1.470441845301485
100
AcDbArc
 50
127.3990546195139
 51
232.6009453804915
  0
ARC
  5
396
330
1F
100
AcDbEntity
  8
1
  6
Continuous
 62
     3
100
AcDbCircle
 10
194.9522078855156
 20
519.1681552367297
 30
0.0
 40
1.47044184529521
100
AcDbArc
 50
307.3990546189899
 51
52.60094538061055
  0
ARC
  5
397
330
1F
100
AcDbEntity
  8
1
  6
Continuous
 62
     3
100
AcDbCircle
 10
194.9522078855128
 20
544.8318447632691
 30
0.0
 40
1.470441845297934
100
AcDbArc
 50
307.3990546194497
 51
52.6009453809499
  0
ARC
  5
398
330
1F
100
AcDbEntity
  8
1
  6
Continuous
 62
     3
100
AcDbCircle
 10
180.893091576115
 20
544.8318447632722
 30
0.0
 40
1.470441845304187
100
AcDbArc
 50
127.3990546195714
 51
232.6009453804286
  0
ARC
  5
399
330
1F
100
AcDbEntity
  8
1
  6
Continuous
 62
     3
100
AcDbCircle
 10
184.4383917082468
 20
532.0000000000011
 30
0.0
 40
5.015741977436157
100
AcDbArc
 50
152.2382768353438
 51
207.761723164655
  0
ARC
  5
39A
330
1F
100
AcDbEntity
  8
0
  6
Continuous
 62
     3
100
AcDbCircle
 10
175.5358983848623
 20
519.0
 30
0.0
 40
2.000000000000016
100
AcDbArc
 50
29.99999999999973
 51
90.0
  0
ARC
  5
39B
330
1F
100
AcDbEntity
  8
0
  6
Continuous
 62
     3
100
AcDbCircle
 10
175.5358983848623
 20
545.0
 30
0.0
 40
2.0
100
AcDbArc
 50
270.0
 51
330.0000000000003
  0
ARC
  5
39C
330
1F
100
AcDbEntity
  8
0
  6
Continuous
 62
     3
100
AcDbCircle
 10
178.9999999402903
 20
518.9999998965798
 30
0.0
 40
0.9999998965797334
100
AcDbArc
 50
209.9999965791051
 51
270.0
  0
ARC
  5
39D
330
1F
100
AcDbEntity
  8
0
  6
Continuous
 62
     3
100
AcDbCircle
 10
178.9999999402903
 20
545.0000001034201
 30
0.0
 40
0.9999998965798795
100
AcDbArc
 50
90.0
 51
150.0000034208949
  0
ARC
  5
39E
330
1F
100
AcDbEntity
  8
0
  6
Continuous
 62
     3
100
AcDbCircle
 10
195.8452995213304
 20
518.9999998965798
 30
0.0
 40
0.9999998965797676
100
AcDbArc
 50
269.9999965784451
 51
330.0000034209014
  0
ARC
  5
39F
330
1F
100
AcDbEntity
  8
0
  6
Continuous
 62
     3
100
AcDbCircle
 10
195.8452995213304
 20
545.00000010342
 30
0.0
 40
0.9999998965799871
100
AcDbArc
 50
29.99999657910422
 51
90.00000342155498
  0
ARC
  5
3A0
330
1F
100
AcDbEntity
  8
0
  6
Continuous
 62
     3
100
AcDbCircle
 10
98.15470047866961
 20
545.00000010342
 30
0.0
 40
0.999999896579995
100
AcDbArc
 50
89.99999657844339
 51
150.0000034208958
  0
ARC
  5
3A1
330
1F
100
AcDbEntity
  8
0
  6
Continuous
 62
     3
100
AcDbCircle
 10
98.15470047866961
 20
518.9999998965798
 30
0.0
 40
0.9999998965799303
100
AcDbArc
 50
209.9999965790986
 51
270.0000034215566
  0
ARC
  5
3A2
330
1F
100
AcDbEntity
  8
0
  6
Continuous
 62
     3
100
AcDbCircle
 10
115.0000000597097
 20
545.0000001034201
 30
0.0
 40
0.9999998965797334
100
AcDbArc
 50
29.99999657910509
 51
90.0
  0
ARC
  5
3A3
330
1F
100
AcDbEntity
  8
0
  6
Continuous
 62
     3
100
AcDbCircle
 10
115.0000000597097
 20
518.9999998965798
 30
0.0
 40
0.9999998965797658
100
AcDbArc
 50
270.0
 51
330.0000034208949
  0
ARC
  5
3A4
330
1F
100
AcDbEntity
  8
0
  6
Continuous
 62
     3
100
AcDbCircle
 10
118.4641016151377
 20
545.0
 30
0.0
 40
2.000000000000016
100
AcDbArc
 50
209.9999999999997
 51
270.0
  0
ARC
  5
3A5
330
1F
100
AcDbEntity
  8
0
  6
Continuous
 62
     3
100
AcDbCircle
 10
118.4641016151377
 20
519.0
 30
0.0
 40
2.0
100
AcDbArc
 50
90.0
 51
150.0000000000003
  0
ARC
  5
3A6
330
1F
100
AcDbEntity
  8
1
  6
Continuous
 62
     3
100
AcDbCircle
 10
109.5616082917532
 20
532.0000000000011
 30
0.0
 40
5.015741977436117
100
AcDbArc
 50
332.2382768353451
 51
27.76172316465608
  0
ARC
  5
3A7
330
1F
100
AcDbEntity
  8
1
  6
Continuous
 62
     3
100
AcDbCircle
 10
113.106908423885
 20
544.8318447632722
 30
0.0
 40
1.470441845304187
100
AcDbArc
 50
307.3990546195714
 51
52.60094538042857
  0
ARC
  5
3A8
330
1F
100
AcDbEntity
  8
1
  6
Continuous
 62
     3
100
AcDbCircle
 10
99.04779211448721
 20
544.8318447632691
 30
0.0
 40
1.470441845297805
100
AcDbArc
 50
127.3990546190492
 51
232.6009453805512
  0
ARC
  5
3A9
330
1F
100
AcDbEntity
  8
1
  6
Continuous
 62
     3
100
AcDbCircle
 10
99.04779211448442
 20
519.1681552367297
 30
0.0
 40
1.470441845295322
100
AcDbArc
 50
127.3990546193895
 51
232.6009453810101
  0
ARC
  5
3AA
330
1F
100
AcDbEntity
  8
1
  6
Continuous
 62
     3
100
AcDbCircle
 10
113.1069084238878
 20
519.1681552367268
 30
0.0
 40
1.470441845301674
100
AcDbArc
 50
307.399054619509
 51
52.60094538048563
  0
ARC
  5
3AB
330
1F
100
AcDbEntity
  8
0
  6
Continuous
 62
     3
100
AcDbCircle
 10
114.475426480543
 20
549.0
 30
0.0
 40
2.000000000000029
100
AcDbArc
 50
209.9999999999995
 51
270.0
  0
ARC
  5
3AC
330
1F
100
AcDbEntity
  8
0
  6
Continuous
 62
     3
100
AcDbCircle
 10
114.475426480543
 20
515.0
 30
0.0
 40
2.0
100
AcDbArc
 50
90.0
 51
150.0000000000005
  0
ARC
  5
3AD
330
1F
100
AcDbEntity
  8
1
  6
Continuous
 62
     3
100
AcDbCircle
 10
277.0
 20
337.4727905235664
 30
0.0
 40
26.44985920724308
100
AcDbArc
 50
81.52721040188037
 51
98.47278959811966
  0
ARC
  5
3AE
330
1F
100
AcDbEntity
  8
1
  6
Continuous
 62
     3
100
AcDbCircle
 10
297.0
 20
337.4727905235661
 30
0.0
 40
26.44985920724336
100
AcDbArc
 50
81.52721040188045
 51
98.47278959811956
  0
ARC
  5
3AF
330
1F
100
AcDbEntity
  8
0
  6
Continuous
 62
     3
100
AcDbCircle
 10
310.4999999999997
 20
284.9433756729721
 30
0.0
 40
1.000000000000027
100
AcDbArc
 50
300.0000000000179
 51
0.0
  0
ARC
  5
3B0
330
1F
100
AcDbEntity
  8
0
  6
Continuous
 62
     3
100
AcDbCircle
 10
310.5
 20
313.0566243270241
 30
0.0
 40
1.0
100
AcDbArc
 50
0.0
 51
59.99999999999783
  0
ARC
  5
3B1
330
1F
100
AcDbEntity
  8
0
  6
Continuous
 62
     3
100
AcDbCircle
 10
263.5
 20
315.9433756729721
 30
0.0
 40
1.0
100
AcDbArc
 50
180.0
 51
239.9999999999962
  0
ARC
  5
3B2
330
1F
100
AcDbEntity
  8
0
  6
Continuous
 62
     3
100
AcDbCircle
 10
263.5
 20
344.0566243270241
 30
0.0
 40
0.9999999999999344
100
AcDbArc
 50
120.0000000000022
 51
180.0
  0
ARC
  5
3B3
330
1F
100
AcDbEntity
  8
1
  6
Continuous
 62
     3
100
AcDbCircle
 10
287.0
 20
298.9999999999982
 30
0.0
 40
15.00000000000096
100
AcDbArc
 50
321.039469781326
 51
338.9605302186829
  0
ARC
  5
3B4
330
1F
100
AcDbEntity
  8
1
  6
Continuous
 62
     3
100
AcDbCircle
 10
287.0
 20
298.9999999999982
 30
0.0
 40
15.00000000000092
100
AcDbArc
 50
261.0394697813262
 51
278.9605302186824
  0
ARC
  5
3B5
330
1F
100
AcDbEntity
  8
1
  6
Continuous
 62
     3
100
AcDbCircle
 10
287.0
 20
298.9999999999982
 30
0.0
 40
15.00000000000092
100
AcDbArc
 50
201.0394697813264
 51
218.9605302186826
  0
ARC
  5
3B6
330
1F
100
AcDbEntity
  8
1
  6
Continuous
 62
     3
100
AcDbCircle
 10
287.0
 20
298.9999999999982
 30
0.0
 40
15.00000000000097
100
AcDbArc
 50
141.0394697813266
 51
158.9605302186823
  0
ARC
  5
3B7
330
1F
100
AcDbEntity
  8
1
  6
Continuous
 62
     3
100
AcDbCircle
 10
287.0
 20
298.9999999999982
 30
0.0
 40
15.00000000000096
100
AcDbArc
 50
81.0394697813267
 51
98.9605302186828
  0
ARC
  5
3B8
330
1F
100
AcDbEntity
  8
1
  6
Continuous
 62
     3
100
AcDbCircle
 10
287.0
 20
298.9999999999982
 30
0.0
 40
15.00000000000098
100
AcDbArc
 50
21.03946978132701
 51
38.96053021868272
  0
ARC
  5
3B9
330
1F
100
AcDbEntity
  8
0
  6
Continuous
 62
     3
100
AcDbCircle
 10
310.5
 20
344.0566243270241
 30
0.0
 40
1.0
100
AcDbArc
 50
0.0
 51
59.99999999999783
  0
ARC
  5
3BA
330
1F
100
AcDbEntity
  8
0
  6
Continuous
 62
     3
100
AcDbCircle
 10
310.5
 20
315.9433756729721
 30
0.0
 40
0.9999999999998851
100
AcDbArc
 50
300.0000000000038
 51
0.0
  0
ARC
  5
3BB
330
1F
100
AcDbEntity
  8
0
  6
Continuous
 62
     3
100
AcDbCircle
 10
263.5
 20
313.0566243270241
 30
0.0
 40
0.9999999999999344
100
AcDbArc
 50
120.0000000000022
 51
180.0
  0
ARC
  5
3BC
330
1F
100
AcDbEntity
  8
0
  6
Continuous
 62
     3
100
AcDbCircle
 10
263.5000000000003
 20
284.9433756729721
 30
0.0
 40
1.000000000000284
100
AcDbArc
 50
180.0
 51
239.9999999999821
  0
ARC
  5
3BD
330
1F
100
AcDbEntity
  8
1
  6
Continuous
 62
     3
100
AcDbCircle
 10
178.4419845383827
 20
518.976300388287
 30
0.0
 40
8.000000000000185
100
AcDbArc
 50
119.7444772579377
 51
195.2555227420621
  0
ARC
  5
3BE
330
1F
100
AcDbEntity
  8
0
  6
Continuous
 62
     3
100
AcDbCircle
 10
179.5245735194571
 20
515.0
 30
0.0
 40
2.000000000000016
100
AcDbArc
 50
29.99999999999973
 51
90.0
  0
ARC
  5
3BF
330
1F
100
AcDbEntity
  8
0
  6
Continuous
 62
     3
100
AcDbCircle
 10
176.2133506288119
 20
515.075254283304
 30
0.0
 40
1.924746354594199
100
AcDbArc
 50
89.99382802259505
 51
102.6450543020179
  0
ARC
  5
3C0
330
1F
100
AcDbEntity
  8
1
  6
Continuous
 62
     3
100
AcDbCircle
 10
115.558000068642
 20
518.976300388287
 30
0.0
 40
8.000000000000016
100
AcDbArc
 50
344.7444772579383
 51
60.25552274206296
  0
ARC
  5
3C1
330
1F
100
AcDbEntity
  8
0
  6
Continuous
 62
     3
100
AcDbCircle
 10
114.475426480543
 20
515.0
 30
0.0
 40
2.0
100
AcDbArc
 50
90.0
 51
150.0000000000005
  0
ARC
  5
3C2
330
1F
100
AcDbEntity
  8
0
  6
Continuous
 62
     3
100
AcDbCircle
 10
176.2133506288119
 20
548.924745716696
 30
0.0
 40
1.924746354594215
100
AcDbArc
 50
257.3549456979828
 51
270.006171977405
  0
ARC
  5
3C3
330
1F
100
AcDbEntity
  8
0
  6
Continuous
 62
     3
100
AcDbCircle
 10
114.475426480543
 20
549.0
 30
0.0
 40
2.000000000000029
100
AcDbArc
 50
209.9999999999995
 51
270.0
  0
ARC
  5
3C4
330
1F
100
AcDbEntity
  8
0
  6
Continuous
 62
     3
100
AcDbCircle
 10
179.5245735194571
 20
549.0
 30
0.0
 40
2.0
100
AcDbArc
 50
270.0
 51
330.0000000000003
  0
ARC
  5
3C5
330
1F
100
AcDbEntity
  8
1
  6
Continuous
 62
     3
100
AcDbCircle
 10
160.0236919152252
 20
500.55800776513
 30
0.0
 40
7.99999999999961
100
AcDbArc
 50
74.74447725793821
 51
150.2555227420627
  0
ARC
  5
3C6
330
1F
100
AcDbEntity
  8
1
  6
Continuous
 62
     3
100
AcDbCircle
 10
146.9999923035123
 20
508.0
 30
0.0
 40
6.999999999999913
100
AcDbArc
 50
209.744477257937
 51
330.2555227420634
  0
ARC
  5
3C7
330
1F
100
AcDbEntity
  8
1
  6
Continuous
 62
     3
100
AcDbCircle
 10
133.9762926917995
 20
500.55800776513
 30
0.0
 40
7.999999999999864
100
AcDbArc
 50
29.74447725793742
 51
105.255522742064
  0
ARC
  5
3C8
330
1F
100
AcDbEntity
  8
1
  6
Continuous
 62
     3
100
AcDbCircle
 10
130.0294295550352
 20
515.029437251523
 30
0.0
 40
6.999999999999885
100
AcDbArc
 50
164.7444772579405
 51
285.2555227420597
  0
ARC
  5
3C9
330
1F
100
AcDbEntity
  8
1
  6
Continuous
 62
     3
100
AcDbCircle
 10
115.558000068642
 20
518.976300388287
 30
0.0
 40
8.000000000000016
100
AcDbArc
 50
344.7444772579383
 51
60.25552274206296
  0
ARC
  5
3CA
330
1F
100
AcDbEntity
  8
1
  6
Continuous
 62
     3
100
AcDbCircle
 10
122.9999923035123
 20
532.0
 30
0.0
 40
6.999999999999952
100
AcDbArc
 50
119.744477257938
 51
240.2555227420613
  0
ARC
  5
3CB
330
1F
100
AcDbEntity
  8
1
  6
Continuous
 62
     3
100
AcDbCircle
 10
115.558000068642
 20
545.023699611713
 30
0.0
 40
8.000000000000178
100
AcDbArc
 50
299.7444772579376
 51
15.255522742062
  0
ARC
  5
3CC
330
1F
100
AcDbEntity
  8
1
  6
Continuous
 62
     3
100
AcDbCircle
 10
130.0294295550352
 20
548.970562748477
 30
0.0
 40
7.000000000000144
100
AcDbArc
 50
74.74447725793891
 51
195.2555227420591
  0
ARC
  5
3CD
330
1F
100
AcDbEntity
  8
1
  6
Continuous
 62
     3
100
AcDbCircle
 10
133.9762926917995
 20
563.44199223487
 30
0.0
 40
7.999999999999585
100
AcDbArc
 50
254.7444772579373
 51
330.2555227420626
  0
ARC
  5
3CE
330
1F
100
AcDbEntity
  8
1
  6
Continuous
 62
     3
100
AcDbCircle
 10
146.9999923035123
 20
556.0
 30
0.0
 40
6.999999999999913
100
AcDbArc
 50
29.744477257937
 51
150.255522742063
  0
ARC
  5
3CF
330
1F
100
AcDbEntity
  8
1
  6
Continuous
 62
     3
100
AcDbCircle
 10
160.0236919152252
 20
563.44199223487
 30
0.0
 40
7.999999999999963
100
AcDbArc
 50
209.744477257937
 51
285.255522742064
  0
ARC
  5
3D0
330
1F
100
AcDbEntity
  8
1
  6
Continuous
 62
     3
100
AcDbCircle
 10
163.9705550519895
 20
548.970562748477
 30
0.0
 40
6.999999999999912
100
AcDbArc
 50
344.7444772579406
 51
105.2555227420593
  0
ARC
  5
3D1
330
1F
100
AcDbEntity
  8
1
  6
Continuous
 62
     3
100
AcDbCircle
 10
178.4419845383827
 20
545.023699611713
 30
0.0
 40
8.000000000000016
100
AcDbArc
 50
164.7444772579384
 51
240.2555227420628
  0
ARC
  5
3D2
330
1F
100
AcDbEntity
  8
1
  6
Continuous
 62
     3
100
AcDbCircle
 10
170.9999923035123
 20
532.0
 30
0.0
 40
7.000000000000001
100
AcDbArc
 50
299.7444772579387
 51
60.25552274206067
  0
ARC
  5
3D3
330
1F
100
AcDbEntity
  8
1
  6
Continuous
 62
     3
100
AcDbCircle
 10
178.4419845383827
 20
518.976300388287
 30
0.0
 40
8.000000000000185
100
AcDbArc
 50
119.7444772579377
 51
195.2555227420621
  0
ARC
  5
3D4
330
1F
100
AcDbEntity
  8
1
  6
Continuous
 62
     3
100
AcDbCircle
 10
163.9705550519895
 20
515.029437251523
 30
0.0
 40
7.000000000000112
100
AcDbArc
 50
254.7444772579381
 51
15.25552274205883
  0
ARC
  5
3E1
330
1F
100
AcDbEntity
  8
3
  6
Continuous
 62
     3
100
AcDbCircle
 10
257.9999873064539
 20
427.5000442299667
 30
0.0
 40
1.999999999999972
100
AcDbArc
 50
180.0
 51
270.0
  0
ARC
  5
3E2
330
1F
100
AcDbEntity
  8
3
  6
Continuous
 62
     3
100
AcDbCircle
 10
261.9999873064539
 20
435.5447827484306
 30
0.0
 40
5.999999999999081
100
AcDbArc
 50
106.8980453281979
 51
180.0
  0
ARC
  5
3E3
330
1F
100
AcDbEntity
  8
3
  6
Continuous
 62
     3
100
AcDbCircle
 10
274.4999873064539
 20
443.0000442299667
 30
0.0
 40
2.5
100
AcDbArc
 50
90.0
 51
106.8980453281833
  0
ARC
  5
3E4
330
1F
100
AcDbEntity
  8
3
  6
Continuous
 62
     3
100
AcDbCircle
 10
299.4999873064534
 20
443.0000442299667
 30
0.0
 40
2.500000000001513
100
AcDbArc
 50
73.101954671788
 51
90.0
  0
ARC
  5
3E5
330
1F
100
AcDbEntity
  8
3
  6
Continuous
 62
     3
100
AcDbCircle
 10
311.9999873064534
 20
435.5447827484306
 30
0.0
 40
6.0
100
AcDbArc
 50
0.0
 51
73.10195467180473
  0
ARC
  5
3E6
330
1F
100
AcDbEntity
  8
3
  6
Continuous
 62
     3
100
AcDbCircle
 10
315.9999873064534
 20
427.5000442299667
 30
0.0
 40
2.0
100
AcDbArc
 50
270.0
 51
0.0
  0
ARC
  5
3E7
330
1F
100
AcDbEntity
  8
1
  6
Continuous
 62
     3
100
AcDbCircle
 10
297.4554169747799
 20
176.126933710825
 30
0.0
 40
36.08439114597171
100
AcDbArc
 50
78.52165904546908
 51
101.4783409545323
  0
ARC
  5
3E8
330
1F
100
AcDbEntity
  8
1
  6
Continuous
 62
     3
100
AcDbCircle
 10
297.4554169747799
 20
233.8371674529286
 30
0.0
 40
36.08439114597179
100
AcDbArc
 50
258.5216590454677
 51
281.478340954531
  0
ARC
  5
3E9
330
1F
100
AcDbEntity
  8
1
  6
Continuous
 62
     3
100
AcDbCircle
 10
276.5445576381279
 20
233.8371674529286
 30
0.0
 40
36.08439114597159
100
AcDbArc
 50
258.5216590454692
 51
281.4783409545327
  0
ARC
  5
3EA
330
1F
100
AcDbEntity
  8
1
  6
Continuous
 62
     3
100
AcDbCircle
 10
276.5445576381279
 20
176.126933710825
 30
0.0
 40
36.08439114597193
100
AcDbArc
 50
78.5216590454674
 51
101.4783409545308
  0
ARC
  5
3EB
330
1F
100
AcDbEntity
  8
0
  6
Continuous
 62
     3
100
AcDbCircle
 10
272.999987306456
 20
256.4907194056622
 30
0.0
 40
3.0
100
AcDbArc
 50
179.999999999607
 51
180.0220717040405
  0
ARC
  5
3EC
330
1F
100
AcDbEntity
  8
0
  6
Continuous
 62
     3
100
AcDbCircle
 10
286.9999873065169
 20
252.0
 30
0.0
 40
18.50000000002191
100
AcDbArc
 50
138.9246444167906
 51
161.0753555842929
  0
ARC
  5
3ED
330
1F
100
AcDbEntity
  8
0
  6
Continuous
 62
     3
100
AcDbCircle
 10
286.999987306461
 20
251.9999999999017
 30
0.0
 40
18.5
100
AcDbArc
 50
198.9246444160512
 51
221.0753555839481
  0
ARC
  5
3EE
330
1F
100
AcDbEntity
  8
0
  6
Continuous
 62
     3
100
AcDbCircle
 10
286.999987306461
 20
251.9999999999017
 30
0.0
 40
18.50000000000015
100
AcDbArc
 50
258.924644416049
 51
281.0753555839477
  0
ARC
  5
3EF
330
1F
100
AcDbEntity
  8
0
  6
Continuous
 62
     3
100
AcDbCircle
 10
286.999987306461
 20
251.9999999999017
 30
0.0
 40
18.49999999999945
100
AcDbArc
 50
318.9246444160497
 51
339.0297562642501
  0
ARC
  5
3F0
330
1F
100
AcDbEntity
  8
0
  6
Continuous
 62
     3
100
AcDbCircle
 10
286.999987306461
 20
251.9999999999017
 30
0.0
 40
18.49999999999924
100
AcDbArc
 50
339.0297562642501
 51
341.0753555839487
  0
ARC
  5
3F1
330
1F
100
AcDbEntity
  8
0
  6
Continuous
 62
     3
100
AcDbCircle
 10
286.999987306461
 20
251.9999999999017
 30
0.0
 40
18.50000000000001
100
AcDbArc
 50
18.92464441605132
 51
41.07535558395036
  0
ARC
  5
3F2
330
1F
100
AcDbEntity
  8
0
  6
Continuous
 62
     3
100
AcDbCircle
 10
286.999987306461
 20
251.9999999999017
 30
0.0
 40
18.49999999999997
100
AcDbArc
 50
78.92464441605229
 51
101.075355583951
  0
ARC
  5
3F3
330
1F
100
AcDbEntity
  8
0
  6
Continuous
 62
     3
100
AcDbCircle
 10
286.999987306461
 20
251.9999999999017
 30
0.0
 40
11.49999999999971
100
AcDbArc
 50
306.3375476205478
 51
233.6616391124953
  0
ARC
  5
3F4
330
1F
100
AcDbEntity
  8
0
  6
Continuous
 62
     3
100
AcDbCircle
 10
286.999987306461
 20
251.9999999999017
 30
0.0
 40
11.5000000000004
100
AcDbArc
 50
270.0
 51
299.3872618106656
  0
ARC
  5
3F5
330
1F
100
AcDbEntity
  8
0
  6
Continuous
 62
     3
100
AcDbCircle
 10
286.999987306461
 20
251.9999999999017
 30
0.0
 40
11.49999999999896
100
AcDbArc
 50
240.6125195495467
 51
270.0
  0
ARC
  5
3F6
330
1F
100
AcDbEntity
  8
0
  6
Continuous
 62
     3
100
AcDbCircle
 10
286.9999873064539
 20
251.9999999999061
 30
0.0
 40
11.49999999999925
100
AcDbArc
 50
233.6616391125368
 51
240.6125195495883
  0
ARC
  5
3F7
330
1F
100
AcDbEntity
  8
0
  6
Continuous
 62
     3
100
AcDbCircle
 10
286.999987306461
 20
251.9999999999017
 30
0.0
 40
11.50000000000012
100
AcDbArc
 50
299.3872618106656
 51
306.3375476205478
  0
ARC
  5
3F8
330
1F
100
AcDbEntity
  8
1
  6
Continuous
 62
     3
100
AcDbCircle
 10
294.999987442281
 20
346.4149373910533
 30
0.0
 40
36.96126495757703
100
AcDbArc
 50
77.4997930486285
 51
102.5002069513712
  0
ARC
  5
3F9
330
1F
100
AcDbEntity
  8
1
  6
Continuous
 62
     3
100
AcDbCircle
 10
278.9999751853622
 20
346.4150493062269
 30
0.0
 40
36.96115304240341
100
AcDbArc
 50
77.49977404844614
 51
102.5002259515537
  0
ARC
  5
3FA
330
1F
100
AcDbEntity
  8
1
  6
Continuous
 62
     3
100
AcDbCircle
 10
301.9999997179998
 20
389.0341773873674
 30
0.0
 40
4.999999906000085
100
AcDbArc
 50
180.0
 51
224.9773185645716
  0
ARC
  5
3FB
330
1F
100
AcDbEntity
  8
1
  6
Continuous
 62
     3
100
AcDbCircle
 10
269.9998629781435
 20
366.887733954511
 30
0.0
 40
2.999999943600304
100
AcDbArc
 50
119.4517489303979
 51
180.5482510696041
  0
ARC
  5
3FC
330
1F
100
AcDbEntity
  8
1
  6
Continuous
 62
     3
100
AcDbCircle
 10
272.0000002819996
 20
389.0341773873674
 30
0.0
 40
4.99999990599968
100
AcDbArc
 50
289.4926182729858
 51
0.0
  0
ARC
  5
3FD
330
1F
100
AcDbEntity
  8
1
  6
Continuous
 62
     3
100
AcDbCircle
 10
279.0000001503999
 20
405.5000434591661
 30
0.0
 40
1.999999962400636
100
AcDbArc
 50
90.0
 51
180.0
  0
ARC
  5
3FE
330
1F
100
AcDbEntity
  8
1
  6
Continuous
 62
     3
100
AcDbCircle
 10
294.9999998495996
 20
405.5000434591661
 30
0.0
 40
1.999999962400125
100
AcDbArc
 50
0.0
 51
90.0
  0
ARC
  5
3FF
330
1F
100
AcDbEntity
  8
1
  6
Continuous
 62
     3
100
AcDbCircle
 10
301.9999997179998
 20
389.0341773873674
 30
0.0
 40
4.999999906000489
100
AcDbArc
 50
224.9773185645716
 51
250.5073817270189
  0
ARC
  5
400
330
1F
100
AcDbEntity
  8
1
  6
Continuous
 62
     3
100
AcDbCircle
 10
304.0001370218561
 20
366.887733954511
 30
0.0
 40
2.999999943599901
100
AcDbArc
 50
359.4517489303959
 51
60.54825106960491
  0
ARC
  5
401
330
1F
100
AcDbEntity
  8
0
  6
Continuous
 62
     3
100
AcDbCircle
 10
303.9999996831742
 20
220.4545301902192
 30
0.0
 40
2.499999683174452
100
AcDbArc
 50
113.5781768985402
 51
179.9999932708712
  0
ARC
  5
402
330
1F
100
AcDbEntity
  8
0
  6
Continuous
 62
     3
100
AcDbCircle
 10
304.0
 20
216.871315431947
 30
0.0
 40
2.5
100
AcDbArc
 50
180.0
 51
216.869897645844
  0
ARC
  5
403
330
1F
100
AcDbEntity
  8
0
  6
Continuous
 62
     3
100
AcDbCircle
 10
301.0000000972423
 20
227.328393461582
 30
0.0
 40
4.999999902757683
100
AcDbArc
 50
293.5781761617843
 51
0.00000504545601
  0
ARC
  5
404
330
1F
100
AcDbEntity
  8
0
  6
Continuous
 62
     3
100
AcDbCircle
 10
268.0
 20
281.448483194427
 30
0.0
 40
1.5
100
AcDbArc
 50
180.0
 51
268.0000000000029
  0
ARC
  5
405
330
1F
100
AcDbEntity
  8
0
  6
Continuous
 62
     3
100
AcDbCircle
 10
269.5000008143793
 20
276.8047557601463
 30
0.0
 40
2.499999185620716
100
AcDbArc
 50
297.8181323649993
 51
359.9999904303897
  0
ARC
  5
406
330
1F
100
AcDbEntity
  8
0
  6
Continuous
 62
     3
100
AcDbCircle
 10
269.5
 20
277.3936638629941
 30
0.0
 40
2.5
100
AcDbArc
 50
0.0
 51
88.00000000000166
  0
ARC
  5
407
330
1F
100
AcDbEntity
  8
0
  6
Continuous
 62
     3
100
AcDbCircle
 10
273.0000000915997
 20
270.1715066152878
 30
0.0
 40
5.000000091599881
100
AcDbArc
 50
117.8181377499775
 51
180.0000053403954
  0
ARC
  5
408
330
1F
100
AcDbEntity
  8
0
  6
Continuous
 62
     3
100
AcDbCircle
 10
306.0
 20
281.448483194427
 30
0.0
 40
1.499999999999998
100
AcDbArc
 50
272.0000000000015
 51
0.0
  0
ARC
  5
409
330
1F
100
AcDbEntity
  8
0
  6
Continuous
 62
     3
100
AcDbCircle
 10
304.5000004332764
 20
276.8047564155657
 30
0.0
 40
2.500000433276408
100
AcDbArc
 50
180.0000051113761
 51
242.181856258165
  0
ARC
  5
40A
330
1F
100
AcDbEntity
  8
0
  6
Continuous
 62
     3
100
AcDbCircle
 10
304.5
 20
277.3936638629941
 30
0.0
 40
2.500000000000125
100
AcDbArc
 50
91.99999999999834
 51
180.0
  0
ARC
  5
40B
330
1F
100
AcDbEntity
  8
0
  6
Continuous
 62
     3
100
AcDbCircle
 10
300.9999999384531
 20
270.171506536465
 30
0.0
 40
5.000000061546942
100
AcDbArc
 50
359.9999957152701
 51
62.181859524644
  0
ARC
  5
40C
330
1F
100
AcDbEntity
  8
0
  6
Continuous
 62
     3
100
AcDbCircle
 10
269.9999996736123
 20
220.4545296798949
 30
0.0
 40
2.500000326387693
100
AcDbArc
 50
359.9999981575168
 51
66.42182338681761
  0
ARC
  5
40D
330
1F
100
AcDbEntity
  8
0
  6
Continuous
 62
     3
100
AcDbCircle
 10
270.0
 20
216.871315431947
 30
0.0
 40
2.5
100
AcDbArc
 50
323.130102354156
 51
0.0
  0
ARC
  5
40E
330
1F
100
AcDbEntity
  8
0
  6
Continuous
 62
     3
100
AcDbCircle
 10
272.9999998936885
 20
227.3283933664025
 30
0.0
 40
4.999999893688512
100
AcDbArc
 50
179.9999937114432
 51
246.4218189383263
  0
ARC
  5
40F
330
1F
100
AcDbEntity
  8
0
  6
Continuous
 62
     3
100
AcDbCircle
 10
270.0
 20
216.871315431947
 30
0.0
 40
2.5
100
AcDbArc
 50
323.130102354156
 51
0.0
  0
ARC
  5
410
330
1F
100
AcDbEntity
  8
0
  6
Continuous
 62
     3
100
AcDbCircle
 10
304.0
 20
216.871315431947
 30
0.0
 40
2.5
100
AcDbArc
 50
180.0
 51
216.869897645844
  0
ARC
  5
411
330
1F
100
AcDbEntity
  8
0
  6
Continuous
 62
     3
100
AcDbCircle
 10
130.0151605904033
 20
216.9370243226914
 30
0.0
 40
2.5
100
AcDbArc
 50
323.130102354156
 51
353.686860301657
  0
ARC
  5
412
330
1F
100
AcDbEntity
  8
0
  6
Continuous
 62
     3
100
AcDbCircle
 10
164.0151605904033
 20
216.9370243226914
 30
0.0
 40
2.5
100
AcDbArc
 50
180.0
 51
216.869897645844
  0
ARC
  5
413
330
1F
100
AcDbEntity
  8
0
  6
Continuous
 62
     3
100
AcDbCircle
 10
164.0151605904033
 20
216.9370243226914
 30
0.0
 40
2.5
100
AcDbArc
 50
180.0
 51
216.869897645844
  0
ARC
  5
414
330
1F
100
AcDbEntity
  8
1
  6
Continuous
 62
     3
100
AcDbCircle
 10
164.34620955551
 20
207.1723718947898
 30
0.0
 40
9.419630651960695
100
AcDbArc
 50
247.4254728893821
 51
292.5745271106163
  0
ARC
  5
415
330
1F
100
AcDbEntity
  8
1
  6
Continuous
 62
     3
100
AcDbCircle
 10
146.9999999999999
 20
233.8371674530225
 30
0.0
 40
36.08439114597176
100
AcDbArc
 50
258.5216590454678
 51
281.478340954532
  0
ARC
  5
416
330
1F
100
AcDbEntity
  8
1
  6
Continuous
 62
     3
100
AcDbCircle
 10
129.679492249937
 20
207.0445070271376
 30
0.0
 40
9.291730720086935
100
AcDbArc
 50
247.2691390733742
 51
292.7308609266247
  0
ARC
  5
417
330
1F
100
AcDbEntity
  8
1
  6
Continuous
 62
     3
100
AcDbCircle
 10
164.34620955551
 20
202.7917292691517
 30
0.0
 40
9.419630651960587
100
AcDbArc
 50
67.4254728893837
 51
112.5745271106179
  0
ARC
  5
418
330
1F
100
AcDbEntity
  8
1
  6
Continuous
 62
     3
100
AcDbCircle
 10
146.9999999999999
 20
176.1269337109189
 30
0.0
 40
36.08439114597183
100
AcDbArc
 50
78.52165904546797
 51
101.4783409545322
  0
ARC
  5
419
330
1F
100
AcDbEntity
  8
1
  6
Continuous
 62
     3
100
AcDbCircle
 10
129.679492249937
 20
202.9195941368038
 30
0.0
 40
9.291730720086937
100
AcDbArc
 50
67.26913907337553
 51
112.7308609266256
  0
ARC
  5
41A
330
1F
100
AcDbEntity
  8
1
  6
Continuous
 62
     3
100
AcDbCircle
 10
168.0
 20
261.1324240225883
 30
0.0
 40
2.0
100
AcDbArc
 50
180.0
 51
318.5861454315543
  0
ARC
  5
41B
330
1F
100
AcDbEntity
  8
1
  6
Continuous
 62
     3
100
AcDbCircle
 10
126.0
 20
242.8675759774117
 30
0.0
 40
2.000000000000098
100
AcDbArc
 50
59.65650859588988
 51
138.5861454315496
  0
ARC
  5
41C
330
1F
100
AcDbEntity
  8
1
  6
Continuous
 62
     3
100
AcDbCircle
 10
126.0
 20
242.8675759774117
 30
0.0
 40
2.0
100
AcDbArc
 50
0.0
 51
59.65650859588988
  0
ARC
  5
41D
330
1F
100
AcDbEntity
  8
1
  6
Continuous
 62
     3
100
AcDbCircle
 10
130.0
 20
277.4005021441992
 30
0.0
 40
1.999999999999949
100
AcDbArc
 50
303.6803877152405
 51
1.647487976687
  0
ARC
  5
41E
330
1F
100
AcDbEntity
  8
0
  6
Continuous
 62
     3
100
AcDbCircle
 10
128.0
 20
281.4485331622107
 30
0.0
 40
1.5
100
AcDbArc
 50
180.0
 51
268.0000000000018
  0
ARC
  5
41F
330
1F
100
AcDbEntity
  8
0
  6
Continuous
 62
     3
100
AcDbCircle
 10
166.0
 20
281.4485331622107
 30
0.0
 40
1.500000000000062
100
AcDbArc
 50
272.000000000009
 51
0.0
  0
ARC
  5
420
330
1F
100
AcDbEntity
  8
0
  6
Continuous
 62
     3
100
AcDbCircle
 10
160.9999999384533
 20
270.1715565042485
 30
0.0
 40
5.000000061546714
100
AcDbArc
 50
359.9999957152714
 51
62.18185952464746
  0
ARC
  5
421
330
1F
100
AcDbEntity
  8
0
  6
Continuous
 62
     3
100
AcDbCircle
 10
129.5
 20
277.3937138307776
 30
0.0
 40
2.500000000000071
100
AcDbArc
 50
1.47354788977417
 51
87.9999999999991
  0
ARC
  5
422
330
1F
100
AcDbEntity
  8
0
  6
Continuous
 62
     3
100
AcDbCircle
 10
164.5000004332766
 20
276.8048063833491
 30
0.0
 40
2.500000433276607
100
AcDbArc
 50
180.0000051113734
 51
242.181856258158
  0
ARC
  5
423
330
1F
100
AcDbEntity
  8
0
  6
Continuous
 62
     3
100
AcDbCircle
 10
164.5
 20
277.3937138307776
 30
0.0
 40
2.500000000000179
100
AcDbArc
 50
91.99999999999633
 51
180.0
  0
ARC
  5
424
330
1F
100
AcDbEntity
  8
0
  6
Continuous
 62
     3
100
AcDbCircle
 10
124.5013290004885
 20
273.734803191937
 30
0.0
 40
1.998670999912285
100
AcDbArc
 50
337.3313255558861
 51
359.9988528213397
  0
ARC
  5
425
330
1F
100
AcDbEntity
  8
0
  6
Continuous
 62
     3
100
AcDbCircle
 10
114.4754264805429
 20
235.0000000000001
 30
0.0
 40
2.0
100
AcDbArc
 50
90.0
 51
149.9999999999974
  0
ARC
  5
426
330
1F
100
AcDbEntity
  8
0
  6
Continuous
 62
     3
100
AcDbCircle
 10
179.5245735194572
 20
235.0000000000001
 30
0.0
 40
1.999999999999844
100
AcDbArc
 50
30.00000000000258
 51
90.0
  0
ARC
  5
427
330
1F
100
AcDbEntity
  8
0
  6
Continuous
 62
     3
100
AcDbCircle
 10
178.2993438796
 20
232.0000384735547
 30
0.0
 40
4.99996152662141
100
AcDbArc
 50
90.00048073076263
 51
139.3932642739296
  0
ARC
  5
428
330
1F
100
AcDbEntity
  8
0
  6
Continuous
 62
     3
100
AcDbCircle
 10
165.9999989018283
 20
281.448531059363
 30
0.0
 40
1.500001098173265
100
AcDbArc
 50
304.8501053853794
 51
0.00008032280672
  0
ARC
  5
429
330
1F
100
AcDbEntity
  8
0
  6
Continuous
 62
     3
100
AcDbCircle
 10
130.0000003338256
 20
220.4538354707115
 30
0.0
 40
2.499999666174413
100
AcDbArc
 50
359.9999949788447
 51
66.44246146562809
  0
ARC
  5
42A
330
1F
100
AcDbEntity
  8
0
  6
Continuous
 62
     3
100
AcDbCircle
 10
125.9999968792732
 20
234.9999968792741
 30
0.0
 40
2.000003120732012
100
AcDbArc
 50
0.00013077501758
 51
89.99985779547457
  0
ARC
  5
42B
330
1F
100
AcDbEntity
  8
0
  6
Continuous
 62
     3
100
AcDbCircle
 10
114.4754264805429
 20
269.0000000000001
 30
0.0
 40
1.999999999999844
100
AcDbArc
 50
210.0000000000026
 51
270.0
  0
ARC
  5
42C
330
1F
100
AcDbEntity
  8
0
  6
Continuous
 62
     3
100
AcDbCircle
 10
116.4866007419791
 20
271.9999409883963
 30
0.0
 40
4.999940989064325
100
AcDbArc
 50
270.0009366714953
 51
303.6813243911866
  0
ARC
  5
42D
330
1F
100
AcDbEntity
  8
0
  6
Continuous
 62
     3
100
AcDbCircle
 10
124.4996159244119
 20
273.7355871344944
 30
0.0
 40
2.000553872759394
100
AcDbArc
 50
303.6774241456488
 51
337.3295166589872
  0
ARC
  5
42E
330
1F
100
AcDbEntity
  8
0
  6
Continuous
 62
     3
100
AcDbCircle
 10
179.5245735194572
 20
269.0000000000001
 30
0.0
 40
2.0
100
AcDbArc
 50
270.0
 51
329.9999999999991
  0
ARC
  5
42F
330
1F
100
AcDbEntity
  8
0
  6
Continuous
 62
     3
100
AcDbCircle
 10
168.0000020143484
 20
269.0000020143478
 30
0.0
 40
2.000002014351122
100
AcDbArc
 50
180.0000943395137
 51
269.999895712805
  0
ARC
  5
430
330
1F
100
AcDbEntity
  8
0
  6
Continuous
 62
     3
100
AcDbCircle
 10
123.5
 20
344.0566243270241
 30
0.0
 40
0.9999999999999344
100
AcDbArc
 50
120.0000000000022
 51
180.0
  0
ARC
  5
431
330
1F
100
AcDbEntity
  8
0
  6
Continuous
 62
     3
100
AcDbCircle
 10
98.73205080756864
 20
343.9999999999982
 30
0.0
 40
1.0
100
AcDbArc
 50
90.0
 51
150.0000000000027
  0
ARC
  5
432
330
1F
100
AcDbEntity
  8
0
  6
Continuous
 62
     3
100
AcDbCircle
 10
170.5
 20
315.9433756729721
 30
0.0
 40
0.9999999999998851
100
AcDbArc
 50
300.0000000000038
 51
0.0
  0
ARC
  5
433
330
1F
100
AcDbEntity
  8
0
  6
Continuous
 62
     3
100
AcDbCircle
 10
117.4641016151375
 20
316.9999999999982
 30
0.0
 40
2.0
100
AcDbArc
 50
90.0
 51
149.9999999999989
  0
ARC
  5
434
330
1F
100
AcDbEntity
  8
0
  6
Continuous
 62
     3
100
AcDbCircle
 10
123.5
 20
315.9433756729721
 30
0.0
 40
1.0
100
AcDbArc
 50
180.0
 51
239.9999999999962
  0
ARC
  5
435
330
1F
100
AcDbEntity
  8
0
  6
Continuous
 62
     3
100
AcDbCircle
 10
119.4999489053183
 20
315.9999489056123
 30
0.0
 40
3.000051095390305
100
AcDbArc
 50
0.0012454840407
 51
89.99851733373896
  0
ARC
  5
436
330
1F
100
AcDbEntity
  8
0
  6
Continuous
 62
     3
100
AcDbCircle
 10
113.4226497308101
 20
343.9999999999982
 30
0.0
 40
1.000000000000058
100
AcDbArc
 50
29.9999999999981
 51
90.0
  0
ARC
  5
437
330
1F
100
AcDbEntity
  8
0
  6
Continuous
 62
     3
100
AcDbCircle
 10
170.5
 20
344.0566243270241
 30
0.0
 40
1.0
100
AcDbArc
 50
0.0
 51
59.99999999999783
  0
ARC
  5
438
330
1F
100
AcDbEntity
  8
0
  6
Continuous
 62
     3
100
AcDbCircle
 10
117.4641016151375
 20
342.9999999999982
 30
0.0
 40
1.99999999999993
100
AcDbArc
 50
210.0000000000011
 51
270.0
  0
ARC
  5
439
330
1F
100
AcDbEntity
  8
0
  6
Continuous
 62
     3
100
AcDbCircle
 10
119.4999826522414
 20
344.0000131428393
 30
0.0
 40
3.000017347801961
100
AcDbArc
 50
270.0004481701409
 51
359.9996912905284
  0
ARC
  5
43A
330
1F
100
AcDbEntity
  8
0
  6
Continuous
 62
     3
100
AcDbCircle
 10
113.4226497308101
 20
315.9999999999982
 30
0.0
 40
1.0
100
AcDbArc
 50
270.0
 51
330.0000000000019
  0
ARC
  5
43B
330
1F
100
AcDbEntity
  8
0
  6
Continuous
 62
     3
100
AcDbCircle
 10
98.73205080756864
 20
315.9999999999982
 30
0.0
 40
1.000000000000082
100
AcDbArc
 50
209.9999999999972
 51
270.0
  0
ARC
  5
43C
330
1F
100
AcDbEntity
  8
0
  6
Continuous
 62
     3
100
AcDbCircle
 10
195.2679491924314
 20
284.9999999999982
 30
0.0
 40
1.0
100
AcDbArc
 50
270.0
 51
330.0000000000052
  0
ARC
  5
43D
330
1F
100
AcDbEntity
  8
0
  6
Continuous
 62
     3
100
AcDbCircle
 10
180.57735026919
 20
284.9999999999982
 30
0.0
 40
1.000000000000058
100
AcDbArc
 50
209.9999999999981
 51
270.0
  0
ARC
  5
43E
330
1F
100
AcDbEntity
  8
0
  6
Continuous
 62
     3
100
AcDbCircle
 10
174.5000173477586
 20
313.0000131428393
 30
0.0
 40
3.00001734780182
100
AcDbArc
 50
180.0003087094716
 51
269.9995518298613
  0
ARC
  5
43F
330
1F
100
AcDbEntity
  8
0
  6
Continuous
 62
     3
100
AcDbCircle
 10
176.5358983848626
 20
311.9999999999982
 30
0.0
 40
2.0
100
AcDbArc
 50
270.0
 51
329.9999999999987
  0
ARC
  5
440
330
1F
100
AcDbEntity
  8
0
  6
Continuous
 62
     3
100
AcDbCircle
 10
123.5
 20
313.0566243270241
 30
0.0
 40
0.9999999999999344
100
AcDbArc
 50
120.0000000000022
 51
180.0
  0
ARC
  5
441
330
1F
100
AcDbEntity
  8
0
  6
Continuous
 62
     3
100
AcDbCircle
 10
180.57735026919
 20
312.9999999999982
 30
0.0
 40
1.0
100
AcDbArc
 50
90.0
 51
150.0000000000019
  0
ARC
  5
442
330
1F
100
AcDbEntity
  8
0
  6
Continuous
 62
     3
100
AcDbCircle
 10
174.5000510946818
 20
284.9999489056123
 30
0.0
 40
3.000051095390345
100
AcDbArc
 50
90.00148266626296
 51
179.9987545159593
  0
ARC
  5
443
330
1F
100
AcDbEntity
  8
0
  6
Continuous
 62
     3
100
AcDbCircle
 10
170.5
 20
284.9433756729721
 30
0.0
 40
0.9999999999998851
100
AcDbArc
 50
300.0000000000038
 51
0.0
  0
ARC
  5
444
330
1F
100
AcDbEntity
  8
0
  6
Continuous
 62
     3
100
AcDbCircle
 10
176.5358983848626
 20
285.9999999999982
 30
0.0
 40
1.999999999999918
100
AcDbArc
 50
30.00000000000136
 51
90.0
  0
ARC
  5
445
330
1F
100
AcDbEntity
  8
0
  6
Continuous
 62
     3
100
AcDbCircle
 10
123.5000000000003
 20
284.9433756729721
 30
0.0
 40
1.000000000000298
100
AcDbArc
 50
180.0
 51
239.9999999999814
  0
ARC
  5
446
330
1F
100
AcDbEntity
  8
0
  6
Continuous
 62
     3
100
AcDbCircle
 10
195.2679491924314
 20
312.9999999999982
 30
0.0
 40
1.000000000000156
100
AcDbArc
 50
29.99999999999485
 51
90.0
  0
ARC
  5
447
330
1F
100
AcDbEntity
  8
0
  6
Continuous
 62
     3
100
AcDbCircle
 10
170.5
 20
313.0566243270241
 30
0.0
 40
1.0
100
AcDbArc
 50
0.0
 51
59.99999999999783
  0
ARC
  5
448
330
1F
100
AcDbEntity
  8
1
  6
Continuous
 62
     3
100
AcDbCircle
 10
161.9999997179998
 20
389.0341331574001
 30
0.0
 40
4.999999905999999
100
AcDbArc
 50
180.0
 51
224.9773185645735
  0
ARC
  5
449
330
1F
100
AcDbEntity
  8
1
  6
Continuous
 62
     3
100
AcDbCircle
 10
129.9998629781435
 20
366.8876897245438
 30
0.0
 40
2.999999943600135
100
AcDbArc
 50
119.4517489303966
 51
180.5482510696073
  0
ARC
  5
44A
330
1F
100
AcDbEntity
  8
1
  6
Continuous
 62
     3
100
AcDbCircle
 10
132.0000002819998
 20
389.0341331574001
 30
0.0
 40
4.999999905999498
100
AcDbArc
 50
289.4926182729837
 51
0.0
  0
ARC
  5
44B
330
1F
100
AcDbEntity
  8
1
  6
Continuous
 62
     3
100
AcDbCircle
 10
139.0000001504
 20
405.4999992291988
 30
0.0
 40
1.99999996240058
100
AcDbArc
 50
90.0
 51
180.0
  0
ARC
  5
44C
330
1F
100
AcDbEntity
  8
1
  6
Continuous
 62
     3
100
AcDbCircle
 10
154.9999998495996
 20
405.4999992291988
 30
0.0
 40
1.99999996240021
100
AcDbArc
 50
0.0
 51
90.0
  0
ARC
  5
44D
330
1F
100
AcDbEntity
  8
1
  6
Continuous
 62
     3
100
AcDbCircle
 10
161.9999997179998
 20
389.0341331574001
 30
0.0
 40
4.999999906000408
100
AcDbArc
 50
224.9773185645735
 51
250.5073817270201
  0
ARC
  5
44E
330
1F
100
AcDbEntity
  8
1
  6
Continuous
 62
     3
100
AcDbCircle
 10
164.0001370218561
 20
366.8876897245438
 30
0.0
 40
2.999999943599959
100
AcDbArc
 50
359.4517489303927
 51
60.54825106960196
  0
ARC
  5
44F
330
1F
100
AcDbEntity
  8
1
  6
Continuous
 62
     3
100
AcDbCircle
 10
160.8564062000503
 20
370.7637214099304
 30
0.0
 40
12.61243670873267
100
AcDbArc
 50
68.51792493819424
 51
111.4820750618053
  0
ARC
  5
450
330
1F
100
AcDbEntity
  8
1
  6
Continuous
 62
     3
100
AcDbCircle
 10
133.1435937999493
 20
370.7637214099303
 30
0.0
 40
12.61243670873268
100
AcDbArc
 50
68.51792493819482
 51
111.4820750618052
  0
ARC
  5
451
330
1F
100
AcDbEntity
  8
1
  6
Continuous
 62
     3
100
AcDbCircle
 10
146.9999999999998
 20
334.2406489693246
 30
0.0
 40
49.13550914933842
100
AcDbArc
 50
79.16375810333916
 51
100.8362418966609
  0
ARC
  5
45E
330
1F
100
AcDbEntity
  8
3
  6
CENTER
 62
     4
100
AcDbCircle
 10
118.0
 20
414.9999999999993
 30
0.0
 40
2.0
100
AcDbArc
 50
180.0
 51
270.0
  0
ARC
  5
45F
330
1F
100
AcDbEntity
  8
3
  6
PHANTOM
 62
     4
100
AcDbCircle
 10
134.5
 20
430.4999999999993
 30
0.0
 40
2.5
100
AcDbArc
 50
90.0
 51
106.8980453281861
  0
ARC
  5
460
330
1F
100
AcDbEntity
  8
3
  6
PHANTOM
 62
     4
100
AcDbCircle
 10
122.0
 20
423.0447385184633
 30
0.0
 40
5.999999999999151
100
AcDbArc
 50
106.8980453282001
 51
180.0
  0
ARC
  5
461
330
1F
100
AcDbEntity
  8
3
  6
Continuous
 62
     3
100
AcDbCircle
 10
118.0
 20
427.4999999999993
 30
0.0
 40
2.0
100
AcDbArc
 50
180.0
 51
270.0
  0
ARC
  5
462
330
1F
100
AcDbEntity
  8
3
  6
Continuous
 62
     3
100
AcDbCircle
 10
122.0
 20
435.5447385184633
 30
0.0
 40
5.999999999999093
100
AcDbArc
 50
106.8980453281983
 51
180.0
  0
ARC
  5
463
330
1F
100
AcDbEntity
  8
3
  6
Continuous
 62
     3
100
AcDbCircle
 10
134.5
 20
442.9999999999993
 30
0.0
 40
2.5
100
AcDbArc
 50
90.0
 51
106.8980453281861
  0
ARC
  5
464
330
1F
100
AcDbEntity
  8
3
  6
PHANTOM
 62
     4
100
AcDbCircle
 10
159.4999999999995
 20
430.4999999999993
 30
0.0
 40
2.500000000001608
100
AcDbArc
 50
73.10195467178525
 51
90.0
  0
ARC
  5
465
330
1F
100
AcDbEntity
  8
3
  6
PHANTOM
 62
     4
100
AcDbCircle
 10
171.9999999999994
 20
423.0447385184633
 30
0.0
 40
6.000000000000085
100
AcDbArc
 50
0.0
 51
73.1019546718037
  0
ARC
  5
466
330
1F
100
AcDbEntity
  8
3
  6
PHANTOM
 62
     4
100
AcDbCircle
 10
175.9999999999995
 20
414.9999999999993
 30
0.0
 40
2.0
100
AcDbArc
 50
270.0
 51
0.0
  0
ARC
  5
467
330
1F
100
AcDbEntity
  8
3
  6
Continuous
 62
     3
100
AcDbCircle
 10
159.4999999999995
 20
442.9999999999993
 30
0.0
 40
2.500000000001608
100
AcDbArc
 50
73.10195467178525
 51
90.0
  0
ARC
  5
468
330
1F
100
AcDbEntity
  8
3
  6
Continuous
 62
     3
100
AcDbCircle
 10
171.9999999999995
 20
435.5447385184633
 30
0.0
 40
6.0
100
AcDbArc
 50
0.0
 51
73.10195467180343
  0
ARC
  5
469
330
1F
100
AcDbEntity
  8
3
  6
Continuous
 62
     3
100
AcDbCircle
 10
175.9999999999995
 20
427.4999999999993
 30
0.0
 40
2.0
100
AcDbArc
 50
270.0
 51
0.0
  0
ARC
  5
46A
330
1F
100
AcDbEntity
  8
1
  6
Continuous
 62
     3
100
AcDbCircle
 10
105.3715789032472
 20
267.1554445662277
 30
0.0
 40
8.082903768652441
100
AcDbArc
 50
158.2132107017316
 51
201.7867892982684
  0
ARC
  5
46B
330
1F
100
AcDbEntity
  8
1
  6
Continuous
 62
     3
100
AcDbCircle
 10
128.7542648054216
 20
252.0
 30
0.0
 40
31.46558967082681
100
AcDbArc
 50
169.007266910688
 51
190.992733089312
  0
ARC
  5
46C
330
1F
100
AcDbEntity
  8
1
  6
Continuous
 62
     3
100
AcDbCircle
 10
105.371578903247
 20
236.8445554337722
 30
0.0
 40
8.082903768652212
100
AcDbArc
 50
158.2132107017318
 51
201.7867892982676
  0
ARC
  5
46D
330
1F
100
AcDbEntity
  8
1
  6
Continuous
 62
     3
100
AcDbCircle
 10
103.7944465005342
 20
236.8445554337722
 30
0.0
 40
8.082903768655296
100
AcDbArc
 50
338.2132107017412
 51
21.78678929825934
  0
ARC
  5
46E
330
1F
100
AcDbEntity
  8
1
  6
Continuous
 62
     3
100
AcDbCircle
 10
80.41176059835018
 20
252.0
 30
0.0
 40
31.46558967083935
100
AcDbArc
 50
349.0072669106924
 51
10.99273308930753
  0
ARC
  5
46F
330
1F
100
AcDbEntity
  8
1
  6
Continuous
 62
     3
100
AcDbCircle
 10
103.7944465005337
 20
267.1554445662277
 30
0.0
 40
8.082903768655845
100
AcDbArc
 50
338.2132107017413
 51
21.78678929825874
  0
ARC
  5
470
330
1F
100
AcDbEntity
  8
1
  6
Continuous
 62
     3
100
AcDbCircle
 10
190.2055534994662
 20
267.1554445662277
 30
0.0
 40
8.082903768655752
100
AcDbArc
 50
158.213210701741
 51
201.786789298259
  0
ARC
  5
471
330
1F
100
AcDbEntity
  8
1
  6
Continuous
 62
     3
100
AcDbCircle
 10
213.5882394016498
 20
252.0
 30
0.0
 40
31.46558967083934
100
AcDbArc
 50
169.0072669106925
 51
190.9927330893075
  0
ARC
  5
472
330
1F
100
AcDbEntity
  8
1
  6
Continuous
 62
     3
100
AcDbCircle
 10
190.2055534994658
 20
236.8445554337722
 30
0.0
 40
8.08290376865534
100
AcDbArc
 50
158.2132107017407
 51
201.7867892982587
  0
ARC
  5
473
330
1F
100
AcDbEntity
  8
1
  6
Continuous
 62
     3
100
AcDbCircle
 10
188.6284210967531
 20
236.8445554337722
 30
0.0
 40
8.082903768652141
100
AcDbArc
 50
338.2132107017323
 51
21.78678929826827
  0
ARC
  5
474
330
1F
100
AcDbEntity
  8
1
  6
Continuous
 62
     3
100
AcDbCircle
 10
165.2457351945784
 20
252.0
 30
0.0
 40
31.46558967082686
100
AcDbArc
 50
349.0072669106881
 51
10.99273308931195
  0
ARC
  5
475
330
1F
100
AcDbEntity
  8
1
  6
Continuous
 62
     3
100
AcDbCircle
 10
188.6284210967529
 20
267.1554445662277
 30
0.0
 40
8.0829037686524
100
AcDbArc
 50
338.2132107017315
 51
21.7867892982685
  0
ARC
  5
476
330
1F
100
AcDbEntity
  8
1
  6
Continuous
 62
     3
100
AcDbCircle
 10
185.9867695673131
 20
311.1236610365158
 30
0.0
 40
6.564119873254594
100
AcDbArc
 50
155.7761399033313
 51
204.210563888022
  0
ARC
  5
477
330
1F
100
AcDbEntity
  8
1
  6
Continuous
 62
     3
100
AcDbCircle
 10
189.8585298943072
 20
311.123661036516
 30
0.0
 40
6.564119873255753
100
AcDbArc
 50
335.7894361119806
 51
24.2238600966619
  0
ARC
  5
478
330
1F
100
AcDbEntity
  8
1
  6
Continuous
 62
     3
100
AcDbCircle
 10
171.0192378864631
 20
298.9999999999982
 30
0.0
 40
25.40341184434767
100
AcDbArc
 50
347.7612442320598
 51
12.23875576794011
  0
ARC
  5
479
330
1F
100
AcDbEntity
  8
1
  6
Continuous
 62
     3
100
AcDbCircle
 10
189.8585298943083
 20
286.8763389634806
 30
0.0
 40
6.564119873254664
100
AcDbArc
 50
335.7761399033299
 51
24.21056388802157
  0
ARC
  5
47A
330
1F
100
AcDbEntity
  8
1
  6
Continuous
 62
     3
100
AcDbCircle
 10
185.9900090428439
 20
286.875644347016
 30
0.0
 40
6.567359312033103
100
AcDbArc
 50
155.7954991627211
 51
204.2045008372793
  0
ARC
  5
47B
330
1F
100
AcDbEntity
  8
1
  6
Continuous
 62
     3
100
AcDbCircle
 10
204.8260615751579
 20
298.9999999999982
 30
0.0
 40
25.40341184434713
100
AcDbArc
 50
167.7612442320596
 51
192.2387557679405
  0
ARC
  5
47C
330
1F
100
AcDbEntity
  8
1
  6
Continuous
 62
     3
100
AcDbCircle
 10
89.17393842484219
 20
329.9999999999982
 30
0.0
 40
25.40341184434716
100
AcDbArc
 50
347.7612442320595
 51
12.23875576794036
  0
ARC
  5
47D
330
1F
100
AcDbEntity
  8
1
  6
Continuous
 62
     3
100
AcDbCircle
 10
108.0099909571562
 20
317.875644347016
 30
0.0
 40
6.567359312033139
100
AcDbArc
 50
335.7954991627207
 51
24.20450083727882
  0
ARC
  5
47E
330
1F
100
AcDbEntity
  8
1
  6
Continuous
 62
     3
100
AcDbCircle
 10
104.1414701056918
 20
317.8763389634806
 30
0.0
 40
6.564119873254661
100
AcDbArc
 50
155.7894361119785
 51
204.2238600966699
  0
ARC
  5
47F
330
1F
100
AcDbEntity
  8
1
  6
Continuous
 62
     3
100
AcDbCircle
 10
122.980762113537
 20
329.9999999999982
 30
0.0
 40
25.40341184434766
100
AcDbArc
 50
167.7612442320599
 51
192.2387557679402
  0
ARC
  5
480
330
1F
100
AcDbEntity
  8
1
  6
Continuous
 62
     3
100
AcDbCircle
 10
104.1414701056929
 20
342.123661036516
 30
0.0
 40
6.564119873255757
100
AcDbArc
 50
155.7761399033381
 51
204.2105638880193
  0
ARC
  5
481
330
1F
100
AcDbEntity
  8
1
  6
Continuous
 62
     3
100
AcDbCircle
 10
108.0132304326869
 20
342.1236610365158
 30
0.0
 40
6.564119873254648
100
AcDbArc
 50
335.7894361119784
 51
24.22386009666869
  0
ARC
  5
482
330
1F
100
AcDbEntity
  8
1
  6
Continuous
 62
     3
100
AcDbCircle
 10
164.3205080756888
 20
355.0098049501964
 30
0.0
 40
8.912844780613103
100
AcDbArc
 50
75.37777861122802
 51
104.622221388772
  0
ARC
  5
483
330
1F
100
AcDbEntity
  8
1
  6
Continuous
 62
     3
100
AcDbCircle
 10
147.0
 20
328.7042833102508
 30
0.0
 40
35.21836642055871
100
AcDbArc
 50
82.65900698336802
 51
97.34099301663198
  0
ARC
  5
484
330
1F
100
AcDbEntity
  8
1
  6
Continuous
 62
     3
100
AcDbCircle
 10
129.6794919243112
 20
355.0098049501972
 30
0.0
 40
8.912844780612332
100
AcDbArc
 50
75.37777861122674
 51
104.6222213887727
  0
CIRCLE
  5
485
330
1F
100
AcDbEntity
  8
1
  6
Continuous
 62
     3
100
AcDbCircle
 10
287.0
 20
298.9999999999982
 30
0.0
 40
12.99999999999733
  0
CIRCLE
  5
486
330
1F
100
AcDbEntity
  8
1
  6
Continuous
 62
     1
100
AcDbCircle
 10
287.0
 20
298.9999999999982
 30
0.0
 40
10.4743587744187
  0
CIRCLE
  5
487
330
1F
100
AcDbEntity
  8
1
  6
Continuous
 62
     3
100
AcDbCircle
 10
287.0
 20
298.9999999999982
 30
0.0
 40
9.274872969782223
  0
CIRCLE
  5
488
330
1F
100
AcDbEntity
  8
1
  6
Continuous
 62
     3
100
AcDbCircle
 10
287.0
 20
298.9999999999982
 30
0.0
 40
8.752971889323021
  0
CIRCLE
  5
489
330
1F
100
AcDbEntity
  8
1
  6
Continuous
 62
     3
100
AcDbCircle
 10
287.0
 20
298.9999999999982
 30
0.0
 40
7.5
  0
CIRCLE
  5
48A
330
1F
100
AcDbEntity
  8
1
  6
Continuous
 62
     3
100
AcDbCircle
 10
147.0
 20
532.0
 30
0.0
 40
10.0
  0
CIRCLE
  5
48B
330
1F
100
AcDbEntity
  8
0
  6
Continuous
 62
     3
100
AcDbCircle
 10
286.999987306461
 20
251.9999999999017
 30
0.0
 40
17.0
  0
CIRCLE
  5
48C
330
1F
100
AcDbEntity
  8
0
  6
Continuous
 62
     3
100
AcDbCircle
 10
286.999987306461
 20
251.9999999999017
 30
0.0
 40
13.59999999999991
  0
CIRCLE
  5
48D
330
1F
100
AcDbEntity
  8
0
  6
Continuous
 62
     3
100
AcDbCircle
 10
286.999987306461
 20
251.9999999999017
 30
0.0
 40
12.00877162835792
  0
CIRCLE
  5
48E
330
1F
100
AcDbEntity
  8
1
  6
Continuous
 62
     1
100
AcDbCircle
 10
287.0
 20
251.9999942621839
 30
0.0
 40
13.20826317071902
  0
SPLINE
  5
48F
330
1F
100
AcDbEntity
  8
0
  6
Continuous
 62
     3
100
AcDbSpline
210
0.0
220
0.0
230
1.0
 70
     8
 71
     3
 72
     9
 73
     5
 74
     3
 42
0.0000000001
 43
0.0000000001
 44
0.00000001
 40
0.0
 40
0.0
 40
0.0
 40
0.0
 40
2.496059461178774
 40
4.992118922357538
 40
4.992118922357538
 40
4.992118922357538
 40
4.992118922357538
 10
175.7920032840662
 20
516.953315769145
 30
0.0
 10
174.9801868975544
 20
516.7710765404213
 30
0.0
 10
173.3565541245307
 20
516.4065980829741
 30
0.0
 10
171.7329439102975
 20
516.0420191480134
 30
0.0
 10
170.9211388031809
 20
515.8597296805331
 30
0.0
 11
175.7920032840662
 21
516.953315769145
 31
0.0
 11
173.3565597642283
 21
516.4065729635957
 31
0.0
 11
170.9211388031809
 21
515.8597296805331
 31
0.0
  0
SPLINE
  5
490
330
1F
100
AcDbEntity
  8
0
  6
Continuous
 62
     3
100
AcDbSpline
210
0.0
220
0.0
230
1.0
 70
     8
 71
     3
 72
    11
 73
     7
 74
     5
 42
0.0000000001
 43
0.0000000001
 44
0.00000001
 40
0.0
 40
0.0
 40
0.0
 40
0.0
 40
0.260578745976586
 40
0.5211574919527838
 40
0.7855493829688823
 40
1.049941273984573
 40
1.049941273984573
 40
1.049941273984573
 40
1.049941273984573
 10
118.5137069120794
 20
516.884696646858
 30
0.0
 10
118.4286437389198
 20
516.902392825577
 30
0.0
 10
118.2585173926008
 20
516.9377851830152
 30
0.0
 10
117.998862405586
 20
516.9729131288323
 30
0.0
 10
117.7365631580622
 20
516.9958180596435
 30
0.0
 10
117.5602729230494
 20
516.9986060455146
 30
0.0
 10
117.472127805543
 20
517.00000003845
 30
0.0
 11
118.5137069120794
 21
516.884696646858
 31
0.0
 11
118.2579832137621
 21
516.9347633321254
 31
0.0
 11
117.9998960431963
 21
516.970711840354
 31
0.0
 11
117.7364183204789
 21
516.9926791266391
 31
0.0
 11
117.472127805543
 21
517.00000003845
 31
0.0
  0
SPLINE
  5
491
330
1F
100
AcDbEntity
  8
0
  6
Continuous
 62
     3
100
AcDbSpline
210
0.0
220
0.0
230
1.0
 70
     8
 71
     3
 72
     9
 73
     5
 74
     3
 42
0.0000000001
 43
0.0000000001
 44
0.00000001
 40
0.0
 40
0.0
 40
0.0
 40
0.0
 40
2.339393466336326
 40
4.678786932672704
 40
4.678786932672704
 40
4.678786932672704
 40
4.678786932672704
 10
123.0788462058997
 20
515.8597330462351
 30
0.0
 10
122.3179941614541
 20
516.030580375944
 30
0.0
 10
120.7962900725629
 20
516.3722750353618
 30
0.0
 10
119.2745679655739
 20
516.7138894430259
 30
0.0
 10
118.5137069120794
 20
516.884696646858
 30
0.0
 11
123.0788462058997
 21
515.8597330462351
 31
0.0
 11
120.7962855680385
 21
516.3722549724232
 31
0.0
 11
118.5137069120794
 21
516.884696646858
 31
0.0
  0
SPLINE
  5
492
330
1F
100
AcDbEntity
  8
0
  6
Continuous
 62
     3
100
AcDbSpline
210
0.0
220
0.0
230
1.0
 70
     8
 71
     3
 72
     9
 73
     5
 74
     3
 42
0.0000000001
 43
0.0000000001
 44
0.00000001
 40
0.0
 40
0.0
 40
0.0
 40
0.0
 40
2.496059461178824
 40
4.992118922357562
 40
4.992118922357562
 40
4.992118922357562
 40
4.992118922357562
 10
175.7920032840662
 20
547.0466842308549
 30
0.0
 10
174.9801868975543
 20
547.2289234595786
 30
0.0
 10
173.3565541245308
 20
547.593401917026
 30
0.0
 10
171.7329439102975
 20
547.9579808519868
 30
0.0
 10
170.9211388031809
 20
548.1402703194669
 30
0.0
 11
175.7920032840662
 21
547.0466842308549
 31
0.0
 11
173.3565597642283
 21
547.5934270364044
 31
0.0
 11
170.9211388031809
 21
548.1402703194669
 31
0.0
  0
SPLINE
  5
493
330
1F
100
AcDbEntity
  8
0
  6
Continuous
 62
     3
100
AcDbSpline
210
0.0
220
0.0
230
1.0
 70
     8
 71
     3
 72
     9
 73
     5
 74
     3
 42
0.0000000001
 43
0.0000000001
 44
0.00000001
 40
0.0
 40
0.0
 40
0.0
 40
0.0
 40
2.339393466336326
 40
4.678786932672704
 40
4.678786932672704
 40
4.678786932672704
 40
4.678786932672704
 10
123.0788462058997
 20
548.1402669537649
 30
0.0
 10
122.3179941614541
 20
547.9694196240562
 30
0.0
 10
120.7962900725629
 20
547.6277249646386
 30
0.0
 10
119.2745679655739
 20
547.2861105569742
 30
0.0
 10
118.5137069120794
 20
547.115303353142
 30
0.0
 11
123.0788462058997
 21
548.1402669537649
 31
0.0
 11
120.7962855680385
 21
547.6277450275768
 31
0.0
 11
118.5137069120794
 21
547.115303353142
 31
0.0
  0
SPLINE
  5
494
330
1F
100
AcDbEntity
  8
0
  6
Continuous
 62
     3
100
AcDbSpline
210
0.0
220
0.0
230
1.0
 70
     8
 71
     3
 72
    11
 73
     7
 74
     5
 42
0.0000000001
 43
0.0000000001
 44
0.00000001
 40
0.0
 40
0.0
 40
0.0
 40
0.0
 40
0.2605787459765782
 40
0.5211574919528197
 40
0.7855493829688569
 40
1.049941273984526
 40
1.049941273984526
 40
1.049941273984526
 40
1.049941273984526
 10
118.5137069120794
 20
547.115303353142
 30
0.0
 10
118.4286437389198
 20
547.0976071744229
 30
0.0
 10
118.2585173926007
 20
547.0622148169848
 30
0.0
 10
117.998862405586
 20
547.0270868711676
 30
0.0
 10
117.7365631580622
 20
547.0041819403566
 30
0.0
 10
117.5602729230494
 20
547.0013939544863
 30
0.0
 10
117.472127805543
 20
546.999999961551
 30
0.0
 11
118.5137069120794
 21
547.115303353142
 31
0.0
 11
118.2579832137621
 21
547.0652366678747
 31
0.0
 11
117.9998960431963
 21
547.029288159646
 31
0.0
 11
117.7364183204789
 21
547.0073208733611
 31
0.0
 11
117.472127805543
 21
546.999999961551
 31
0.0
  0
SPLINE
  5
495
330
1F
100
AcDbEntity
  8
0
  6
Continuous
 62
     3
100
AcDbSpline
210
0.0
220
0.0
230
1.0
 70
     8
 71
     3
 72
    11
 73
     7
 74
     5
 42
0.0000000001
 43
0.0000000001
 44
0.00000001
 40
0.0
 40
0.0
 40
0.0
 40
0.0
 40
0.4803040561695532
 40
0.9606183397589328
 40
1.333444920086337
 40
1.920090791559556
 40
1.920090791559556
 40
1.920090791559556
 40
1.920090791559556
 10
166.0
 20
278.5762518389417
 30
0.0
 10
166.011116293608
 20
278.7368257475304
 30
0.0
 10
166.0333491175303
 20
279.0579769839102
 30
0.0
 10
166.1993701119084
 20
279.4765910303851
 30
0.0
 10
166.4566985070372
 20
279.8863737888822
 30
0.0
 10
166.7052040738172
 20
280.0918947233076
 30
0.0
 10
166.8571467007432
 20
280.2175554522382
 30
0.0
 11
166.0
 21
278.5762518389417
 31
0.0
 11
166.0576906813855
 21
279.0530786121562
 31
0.0
 11
166.2274151706562
 21
279.5024063419502
 31
0.0
 11
166.4301128744378
 21
279.8153173514725
 31
0.0
 11
166.8571467007432
 21
280.2175554522382
 31
0.0
  0
SPLINE
  5
496
330
1F
100
AcDbEntity
  8
0
  6
Continuous
 62
     3
100
AcDbSpline
210
0.0
220
0.0
230
1.0
 70
     8
 71
     3
 72
    19
 73
    15
 74
    13
 42
0.0000000001
 43
0.0000000001
 44
0.00000001
 40
0.0
 40
0.0
 40
0.0
 40
0.0
 40
0.2200798107275629
 40
0.4583275569287173
 40
1.069060842990982
 40
1.679686549306621
 40
2.3537107139629
 40
2.897343326685253
 40
3.506415875690617
 40
4.115570223678876
 40
4.790868757620705
 40
5.335406673487567
 40
5.573533363295312
 40
5.793487581907528
 40
5.793487581907528
 40
5.793487581907528
 40
5.793487581907528
 10
130.9991747335132
 20
222.7454830984853
 30
0.0
 10
130.9322988419707
 20
222.775669843409
 30
0.0
 10
130.7930263485658
 20
222.8385352966586
 30
0.0
 10
130.4770220182729
 20
223.0035771970742
 30
0.0
 10
130.0645032356974
 20
223.2639573049226
 30
0.0
 10
129.5747189113182
 20
223.665469774811
 30
0.0
 10
129.1554394621444
 20
224.1104370866883
 30
0.0
 10
128.7942827147923
 20
224.6020684746433
 30
0.0
 10
128.5026397091073
 20
225.1135690828563
 30
0.0
 10
128.2585087996148
 20
225.6972423324107
 30
0.0
 10
128.096540825459
 20
226.2870425433753
 30
0.0
 10
128.0262655614223
 20
226.768866597961
 30
0.0
 10
128.0028927603887
 20
227.1024117659211
 30
0.0
 10
128.0009384098634
 20
227.2551191837068
 30
0.0
 10
128.0
 20
227.3284438740354
 30
0.0
 11
130.9991747335132
 21
222.7454830984853
 31
0.0
 11
130.7994221245694
 21
222.8378628490264
 31
0.0
 11
130.5879922244763
 21
222.9476780843835
 31
0.0
 11
130.0718676614171
 21
223.2741908438759
 31
0.0
 11
129.5995418294785
 21
223.6611947995366
 31
0.0
 11
129.137335341707
 21
224.1517798963368
 31
0.0
 11
128.8154699266157
 21
224.5898884127839
 31
0.0
 11
128.5137991566076
 21
225.119004767166
 31
0.0
 11
128.2787002950808
 21
225.6809634355588
 31
0.0
 11
128.1000476351235
 21
226.3322017460367
 31
0.0
 11
128.0209258127795
 21
226.870960763637
 31
0.0
 11
128.0048266909197
 21
227.1085426204235
 31
0.0
 11
128.0
 21
227.3284438740354
 31
0.0
  0
SPLINE
  5
497
330
1F
100
AcDbEntity
  8
0
  6
Continuous
 62
     3
100
AcDbSpline
210
0.0
220
0.0
230
1.0
 70
    24
 71
     3
 72
    15
 73
    11
 74
     9
 42
0.0000000001
 43
0.0000000001
 44
0.00000001
 40
0.0
 40
0.0
 40
0.0
 40
0.0
 40
0.9537895652219276
 40
1.907579130444021
 40
2.861368695666051
 40
3.815158260888144
 40
4.768947826110217
 40
5.722737391332196
 40
6.676526956554479
 40
7.630316521776395
 40
7.630316521776395
 40
7.630316521776395
 40
7.630316521776395
 10
119.2594341251632
 20
267.8393154436946
 30
0.0
 10
119.5239975452275
 20
268.0156265026535
 30
0.0
 10
120.0531243853562
 20
268.3682486205714
 30
0.0
 10
120.8468146455492
 20
268.8971817974486
 30
0.0
 10
121.6405049057423
 20
269.4261149743254
 30
0.0
 10
122.4341951659353
 20
269.9550481512025
 30
0.0
 10
123.2278854261283
 20
270.4839813280794
 30
0.0
 10
124.0215756863214
 20
271.0129145049566
 30
0.0
 10
124.8152659465143
 20
271.5418476818336
 30
0.0
 10
125.3443927866431
 20
271.8944697997517
 30
0.0
 10
125.6089562067074
 20
272.0707808587106
 30
0.0
 11
119.2594341251632
 21
267.8393154436946
 31
0.0
 11
120.0531243853562
 21
268.3682486205715
 31
0.0
 11
120.8468146455492
 21
268.8971817974485
 31
0.0
 11
121.6405049057422
 21
269.4261149743255
 31
0.0
 11
122.4341951659353
 21
269.9550481512025
 31
0.0
 11
123.2278854261284
 21
270.4839813280795
 31
0.0
 11
124.0215756863213
 21
271.0129145049565
 31
0.0
 11
124.8152659465145
 21
271.5418476818337
 31
0.0
 11
125.6089562067074
 21
272.0707808587106
 31
0.0
  0
SPLINE
  5
498
330
1F
100
AcDbEntity
  8
0
  6
Continuous
 62
     3
100
AcDbSpline
210
0.0
220
0.0
230
1.0
 70
     8
 71
     3
 72
    15
 73
    11
 74
     9
 42
0.0000000001
 43
0.0000000001
 44
0.00000001
 40
0.0
 40
0.0
 40
0.0
 40
0.0
 40
1.921801225170931
 40
3.843602450341868
 40
5.765403675512816
 40
7.687204900683735
 40
9.60900612585468
 40
11.53080735102552
 40
13.45260857766129
 40
15.37440981318347
 40
15.37440981318347
 40
15.37440981318347
 40
15.37440981318347
 10
174.5033991049762
 20
235.2543307984236
 30
0.0
 10
174.0864516175655
 20
234.7679938000658
 30
0.0
 10
173.2525566427441
 20
233.7953198033501
 30
0.0
 10
172.00171418302
 20
232.3363088061262
 30
0.0
 10
170.7508717132637
 20
230.8772978175032
 30
0.0
 10
169.5000292811285
 20
229.4182867966278
 30
0.0
 10
168.2491867085415
 20
227.9592758961605
 30
0.0
 10
166.9983446598216
 20
226.500264545943
 30
0.0
 10
165.747500652569
 20
225.0412548702158
 30
0.0
 10
164.9136185965816
 20
224.0685697928357
 30
0.0
 10
164.4966775676239
 20
223.5822272530212
 30
0.0
 11
174.5033991049762
 21
235.2543307984236
 31
0.0
 11
173.2525566431621
 21
233.7953198029917
 31
0.0
 11
172.001714181348
 21
232.3363088075597
 31
0.0
 11
170.7508717195338
 21
230.8772978121278
 31
0.0
 11
169.5000292577198
 21
229.4182868166958
 31
0.0
 11
168.2491867959056
 21
227.9592758212639
 31
0.0
 11
166.9983443340916
 21
226.500264825832
 31
0.0
 11
165.7475041419225
 21
225.0412518826566
 31
0.0
 11
164.4966775676239
 21
223.5822272530212
 31
0.0
  0
SPLINE
  5
499
330
1F
100
AcDbEntity
  8
0
  6
Continuous
 62
     4
100
AcDbSpline
210
0.0
220
0.0
230
1.0
 70
     8
 71
     3
 72
    53
 73
    49
 74
    47
 42
0.0000000001
 43
0.0000000001
 44
0.00000001
 40
0.0
 40
0.0
 40
0.0
 40
0.0
 40
0.0316788879799863
 40
0.0758210711677514
 40
0.1707878284300454
 40
0.3004631829712977
 40
0.3903703262727696
 40
0.5282373959255272
 40
0.7069193532350294
 40
0.9192755765808863
 40
1.158171384374722
 40
1.697275557386798
 40
2.177019986932887
 40
2.5934893045563
 40
2.942702110042092
 40
3.220618223458169
 40
4.171299948533882
 40
5.079887345152541
 40
5.949814820372094
 40
6.784537768047828
 40
7.587514186044933
 40
8.465132080637458
 40
9.322106529333801
 40
10.1622934477556
 40
10.98958878950944
 40
11.80788451422116
 40
12.67025724760307
 40
13.52087844440342
 40
14.36296268410377
 40
15.19931626611346
 40
16.03232576985042
 40
16.844810171216
 40
17.68469738878012
 40
18.55513052164546
 40
19.45919842824479
 40
20.39992332595117
 40
20.68681553271446
 40
21.03967207967266
 40
21.45551558554528
 40
21.93142413093203
 40
22.46453688546627
 40
22.70473016622749
 40
22.91740169091724
 40
23.09599031019026
 40
23.2339289324503
 40
23.32464596340641
 40
23.47543237385522
 40
23.62621878430397
 40
23.62621878430397
 40
23.62621878430397
 40
23.62621878430397
 10
121.5000265388644
 20
318.9999999999982
 30
0.0
 10
121.5057671384185
 20
319.0088629190098
 30
0.0
 10
121.5195068381079
 20
319.0300756589758
 30
0.0
 10
121.5503636361488
 20
319.0779170921376
 30
0.0
 10
121.5988633733481
 20
319.1532497462003
 30
0.0
 10
121.6553182817657
 20
319.2416033914045
 30
0.0
 10
121.7192223692403
 20
319.3421666735149
 30
0.0
 10
121.7915019687423
 20
319.4567618525857
 30
0.0
 10
121.884904463582
 20
319.6062894847102
 30
0.0
 10
121.9952045159243
 20
319.7849657199752
 30
0.0
 10
122.1668373672663
 20
320.0669618841722
 30
0.0
 10
122.3806181066
 20
320.4276341259389
 30
0.0
 10
122.6180476632154
 20
320.8430237550151
 30
0.0
 10
122.8187922327202
 20
321.2064183597824
 30
0.0
 10
122.9829746592026
 20
321.513113499546
 30
0.0
 10
123.2259157137954
 20
321.9795821363043
 30
0.0
 10
123.5408060194799
 20
322.6188055059853
 30
0.0
 10
123.9116122219868
 20
323.449783317776
 30
0.0
 10
124.2346313613142
 20
324.2590186947744
 30
0.0
 10
124.5118653599048
 20
325.04785094469
 30
0.0
 10
124.7553177382661
 20
325.8504438877303
 30
0.0
 10
124.9620014346026
 20
326.6710546830756
 30
0.0
 10
125.1275872329842
 20
327.5136058374024
 30
0.0
 10
125.2448739282362
 20
328.3473048235733
 30
0.0
 10
125.3147184263629
 20
329.1733805097459
 30
0.0
 10
125.3384704761762
 20
330.0094634133981
 30
0.0
 10
125.3138101666818
 20
330.8533622135365
 30
0.0
 10
125.2394163457795
 20
331.7022645517483
 30
0.0
 10
125.1187779153072
 20
332.5370357722351
 30
0.0
 10
124.9547919591695
 20
333.3583521181836
 30
0.0
 10
124.7519291943718
 20
334.1607185099124
 30
0.0
 10
124.5114431907862
 20
334.9537918428762
 30
0.0
 10
124.2322916011247
 20
335.7473161502758
 30
0.0
 10
123.9088063534336
 20
336.5567783898301
 30
0.0
 10
123.5396713478167
 20
337.3833985378155
 30
0.0
 10
123.2256107676674
 20
338.0209816041393
 30
0.0
 10
122.9822805927908
 20
338.4882490250276
 30
0.0
 10
122.8161680851368
 20
338.7984460785798
 30
0.0
 10
122.6154721006853
 20
339.1615560713938
 30
0.0
 10
122.3796909320114
 20
339.5738741346892
 30
0.0
 10
122.1673465127497
 20
339.9320914658674
 30
0.0
 10
121.9965196426146
 20
340.2128695110761
 30
0.0
 10
121.8859838591237
 20
340.391995458843
 30
0.0
 10
121.7925439913245
 20
340.5416151192566
 30
0.0
 10
121.7201272366773
 20
340.6564344233866
 30
0.0
 10
121.6522782382939
 20
340.7631765967158
 30
0.0
 10
121.5818517309933
 20
340.873354974842
 30
0.0
 10
121.5272879893383
 20
340.9577821883667
 30
0.0
 10
121.5000061185108
 20
340.9999957951291
 30
0.0
 11
121.5000265388644
 21
318.9999999999982
 31
0.0
 11
121.5172412051605
 21
319.0265933677421
 31
0.0
 11
121.5411777412801
 21
319.0636821069385
 31
0.0
 11
121.592561879737
 21
319.1435467129912
 31
0.0
 11
121.6624021600924
 21
319.252808018197
 31
0.0
 11
121.710614510266
 21
319.3286951956868
 31
0.0
 11
121.784169879127
 21
319.4453010986521
 31
0.0
 11
121.8788354107566
 21
319.5968454122678
 31
0.0
 11
121.9903782492357
 21
319.7775478217087
 31
0.0
 11
122.1145655386456
 21
319.9816280121498
 31
0.0
 11
122.3894090735648
 21
320.4454106559305
 31
0.0
 11
122.6274272511221
 21
320.8619464465089
 31
0.0
 11
122.8287581599743
 21
321.2265181920714
 31
0.0
 11
122.9935398887783
 21
321.534408700804
 31
0.0
 11
123.1219105261909
 21
321.7809007808929
 31
0.0
 11
123.5414313984723
 21
322.6340115475072
 31
0.0
 11
123.911175188656
 21
323.4639637069205
 31
0.0
 11
124.233188354831
 21
324.2720981839427
 31
0.0
 11
124.509517355086
 21
325.0597559033833
 31
0.0
 11
124.7422086475101
 21
325.8282777900525
 31
0.0
 11
124.9560726622305
 21
326.679438968747
 31
0.0
 11
125.1209424798204
 21
327.52040457385
 31
0.0
 11
125.237699255647
 21
328.3524393767193
 31
0.0
 11
125.3072241450775
 21
329.1768081487123
 31
0.0
 11
125.3303983034791
 21
329.9947756611869
 31
0.0
 11
125.3052846225261
 21
330.8567826416166
 31
0.0
 11
125.2312235845519
 21
331.7041735685802
 31
0.0
 11
125.1110712458329
 21
332.5376417936807
 31
0.0
 11
124.9476836626451
 21
333.3578806685217
 31
0.0
 11
124.7439168912647
 21
334.1655835447066
 31
0.0
 11
124.5085451380127
 21
334.9432280909058
 31
0.0
 11
124.2302762125502
 21
335.7356780535846
 31
0.0
 11
123.9077516691779
 21
336.5441530115841
 31
0.0
 11
123.5396130621964
 21
337.3698725437453
 31
0.0
 11
123.1245019459063
 21
338.2140562289093
 31
0.0
 11
122.9919985401713
 21
338.4685164139484
 31
0.0
 11
122.8254502330628
 21
338.7795942243602
 31
0.0
 11
122.6243386438593
 21
339.1435721770777
 31
0.0
 11
122.388145391839
 21
339.5567327890342
 31
0.0
 11
122.1163520962805
 21
340.0153585771627
 31
0.0
 11
121.9915228488041
 21
340.220566937366
 31
0.0
 11
121.8798420842296
 21
340.4015547387171
 31
0.0
 11
121.785240239762
 21
340.5530287825569
 31
0.0
 11
121.7116477526066
 21
340.6696958702263
 31
0.0
 11
121.6629950599681
 21
340.7462628030663
 31
0.0
 11
121.5817458898295
 21
340.8732868713677
 31
0.0
 11
121.5000061185108
 21
340.9999957951291
 31
0.0
  0
SPLINE
  5
49A
330
1F
100
AcDbEntity
  8
0
  6
Continuous
 62
     4
100
AcDbSpline
210
0.0
220
0.0
230
1.0
 70
     8
 71
     3
 72
    53
 73
    49
 74
    47
 42
0.0000000001
 43
0.0000000001
 44
0.00000001
 40
0.0
 40
0.0
 40
0.0
 40
0.0
 40
0.031678887980034
 40
0.0758210711677113
 40
0.1707878284300761
 40
0.3004631829712978
 40
0.3903703262727697
 40
0.5282373959254868
 40
0.7069193532349815
 40
0.9192755765809016
 40
1.158171384374715
 40
1.697275557386791
 40
2.177019986932895
 40
2.593489304556301
 40
2.942702110042113
 40
3.22061822345821
 40
4.171299948533904
 40
5.079887345152557
 40
5.9498148203721
 40
6.784537768047843
 40
7.58751418604494
 40
8.465132080637465
 40
9.322106529333812
 40
10.16229344775561
 40
10.98958878950945
 40
11.80788451422117
 40
12.67025724760313
 40
13.52087844440336
 40
14.36296268410382
 40
15.19931626611347
 40
16.03232576985044
 40
16.84481017121589
 40
17.68469738878012
 40
18.55513052164546
 40
19.45919842824487
 40
20.39992332595118
 40
20.68681553271441
 40
21.03967207967267
 40
21.45551558554529
 40
21.93142413093203
 40
22.46453688546628
 40
22.70473016622749
 40
22.91740169091725
 40
23.09599031019025
 40
23.23392893245031
 40
23.32464596340644
 40
23.4754323738552
 40
23.62621878430398
 40
23.62621878430398
 40
23.62621878430398
 40
23.62621878430398
 10
172.4999734611356
 20
287.9999999999982
 30
0.0
 10
172.4942328615815
 20
288.0088629190098
 30
0.0
 10
172.4804931618921
 20
288.0300756589758
 30
0.0
 10
172.4496363638512
 20
288.0779170921376
 30
0.0
 10
172.4011366266518
 20
288.1532497462003
 30
0.0
 10
172.3446817182343
 20
288.2416033914045
 30
0.0
 10
172.2807776307598
 20
288.3421666735148
 30
0.0
 10
172.2084980312576
 20
288.4567618525857
 30
0.0
 10
172.115095536418
 20
288.6062894847103
 30
0.0
 10
172.0047954840757
 20
288.7849657199752
 30
0.0
 10
171.8331626327338
 20
289.0669618841721
 30
0.0
 10
171.6193818934
 20
289.4276341259391
 30
0.0
 10
171.3819523367846
 20
289.8430237550151
 30
0.0
 10
171.1812077672797
 20
290.2064183597823
 30
0.0
 10
171.0170253407974
 20
290.5131134995461
 30
0.0
 10
170.7740842862045
 20
290.9795821363042
 30
0.0
 10
170.4591939805201
 20
291.6188055059854
 30
0.0
 10
170.0883877780131
 20
292.4497833177759
 30
0.0
 10
169.7653686386858
 20
293.2590186947745
 30
0.0
 10
169.4881346400952
 20
294.0478509446901
 30
0.0
 10
169.2446822617339
 20
294.8504438877304
 30
0.0
 10
169.0379985653975
 20
295.6710546830757
 30
0.0
 10
168.8724127670158
 20
296.5136058374025
 30
0.0
 10
168.7551260717638
 20
297.3473048235733
 30
0.0
 10
168.6852815736371
 20
298.1733805097459
 30
0.0
 10
168.6615295238238
 20
299.009463413398
 30
0.0
 10
168.6861898333181
 20
299.8533622135365
 30
0.0
 10
168.7605836542205
 20
300.7022645517483
 30
0.0
 10
168.8812220846926
 20
301.5370357722351
 30
0.0
 10
169.0452080408305
 20
302.3583521181835
 30
0.0
 10
169.2480708056282
 20
303.1607185099125
 30
0.0
 10
169.4885568092139
 20
303.9537918428762
 30
0.0
 10
169.7677083988752
 20
304.7473161502757
 30
0.0
 10
170.0911936465664
 20
305.5567783898302
 30
0.0
 10
170.4603286521833
 20
306.3833985378156
 30
0.0
 10
170.7743892323326
 20
307.0209816041393
 30
0.0
 10
171.0177194072092
 20
307.4882490250275
 30
0.0
 10
171.1838319148632
 20
307.7984460785798
 30
0.0
 10
171.3845278993147
 20
308.1615560713936
 30
0.0
 10
171.6203090679887
 20
308.5738741346894
 30
0.0
 10
171.8326534872502
 20
308.9320914658674
 30
0.0
 10
172.0034803573854
 20
309.2128695110761
 30
0.0
 10
172.1140161408763
 20
309.3919954588428
 30
0.0
 10
172.2074560086755
 20
309.5416151192567
 30
0.0
 10
172.2798727633226
 20
309.6564344233865
 30
0.0
 10
172.3477217617061
 20
309.7631765967158
 30
0.0
 10
172.4181482690066
 20
309.8733549748419
 30
0.0
 10
172.4727120106617
 20
309.9577821883668
 30
0.0
 10
172.4999938814892
 20
309.9999957951291
 30
0.0
 11
172.4999734611356
 21
287.9999999999982
 31
0.0
 11
172.4827587948395
 21
288.0265933677421
 31
0.0
 11
172.4588222587199
 21
288.0636821069384
 31
0.0
 11
172.4074381202629
 21
288.1435467129912
 31
0.0
 11
172.3375978399076
 21
288.252808018197
 31
0.0
 11
172.289385489734
 21
288.3286951956868
 31
0.0
 11
172.2158301208729
 21
288.4453010986521
 31
0.0
 11
172.1211645892434
 21
288.5968454122678
 31
0.0
 11
172.0096217507643
 21
288.7775478217087
 31
0.0
 11
171.8854344613544
 21
288.9816280121498
 31
0.0
 11
171.6105909264352
 21
289.4454106559305
 31
0.0
 11
171.3725727488779
 21
289.8619464465089
 31
0.0
 11
171.1712418400257
 21
290.2265181920714
 31
0.0
 11
171.0064601112217
 21
290.534408700804
 31
0.0
 11
170.878089473809
 21
290.7809007808929
 31
0.0
 11
170.4585686015277
 21
291.6340115475072
 31
0.0
 11
170.088824811344
 21
292.4639637069205
 31
0.0
 11
169.766811645169
 21
293.2720981839427
 31
0.0
 11
169.4904826449139
 21
294.0597559033833
 31
0.0
 11
169.2577913524899
 21
294.8282777900525
 31
0.0
 11
169.0439273377695
 21
295.679438968747
 31
0.0
 11
168.8790575201796
 21
296.52040457385
 31
0.0
 11
168.762300744353
 21
297.3524393767193
 31
0.0
 11
168.6927758549225
 21
298.1768081487123
 31
0.0
 11
168.6696016965209
 21
298.9947756611869
 31
0.0
 11
168.6947153774739
 21
299.8567826416167
 31
0.0
 11
168.768776415448
 21
300.7041735685802
 31
0.0
 11
168.888928754167
 21
301.5376417936807
 31
0.0
 11
169.0523163373549
 21
302.3578806685217
 31
0.0
 11
169.2560831087353
 21
303.1655835447066
 31
0.0
 11
169.4914548619873
 21
303.9432280909057
 31
0.0
 11
169.7697237874497
 21
304.7356780535846
 31
0.0
 11
170.0922483308221
 21
305.5441530115841
 31
0.0
 11
170.4603869378037
 21
306.3698725437454
 31
0.0
 11
170.8754980540937
 21
307.2140562289093
 31
0.0
 11
171.0080014598287
 21
307.4685164139484
 31
0.0
 11
171.1745497669372
 21
307.7795942243602
 31
0.0
 11
171.3756613561407
 21
308.1435721770777
 31
0.0
 11
171.6118546081609
 21
308.5567327890342
 31
0.0
 11
171.8836479037195
 21
309.0153585771627
 31
0.0
 11
172.0084771511959
 21
309.220566937366
 31
0.0
 11
172.1201579157704
 21
309.4015547387171
 31
0.0
 11
172.2147597602379
 21
309.5530287825569
 31
0.0
 11
172.2883522473934
 21
309.6696958702263
 31
0.0
 11
172.3370049400319
 21
309.7462628030663
 31
0.0
 11
172.4182541101704
 21
309.8732868713677
 31
0.0
 11
172.4999938814892
 21
309.9999957951291
 31
0.0
  0
ARC
  5
49B
330
1F
100
AcDbEntity
  8
1
  6
Continuous
 62
     3
100
AcDbCircle
 10
269.6963955412507
 20
217.2999500322185
 30
0.0
 40
2.999999999999998
100
AcDbArc
 50
280.6704440509067
 51
316.9732488830257
  0
ARC
  5
49C
330
1F
100
AcDbEntity
  8
1
  6
Continuous
 62
     3
100
AcDbCircle
 10
304.3036044587491
 20
217.2999500322185
 30
0.0
 40
3.000000000000143
100
AcDbArc
 50
223.026751116975
 51
259.3295559490901
  0
ARC
  5
49D
330
1F
100
AcDbEntity
  8
1
  6
Continuous
 62
     3
100
AcDbCircle
 10
164.5
 20
220.1440060949404
 30
0.0
 40
3.000000000000004
100
AcDbArc
 50
119.2997599934194
 51
174.2374046671374
  0
ARC
  5
49E
330
1F
100
AcDbEntity
  8
1
  6
Continuous
 62
     3
100
AcDbCircle
 10
129.7115561316541
 20
217.365658922963
 30
0.0
 40
2.999999999999998
100
AcDbArc
 50
280.6704440509067
 51
316.9732488830253
  0
ARC
  5
49F
330
1F
100
AcDbEntity
  8
1
  6
Continuous
 62
     3
100
AcDbCircle
 10
164.3187650491523
 20
217.365658922963
 30
0.0
 40
3.000000000000102
100
AcDbArc
 50
223.0267511169758
 51
259.3295559490938
  0
ARC
  5
4A0
330
1F
100
AcDbEntity
  8
1
  6
Continuous
 62
     3
100
AcDbCircle
 10
117.2549298289733
 20
239.0000000000001
 30
0.0
 40
2.0
100
AcDbArc
 50
270.0
 51
318.5861454315495
  0
ARC
  5
4A1
330
1F
100
AcDbEntity
  8
1
  6
Continuous
 62
     3
100
AcDbCircle
 10
176.7450701710267
 20
265.0000000000001
 30
0.0
 40
2.0
100
AcDbArc
 50
90.0
 51
138.5861454315564
  0
LWPOLYLINE
  5
4A2
330
1F
100
AcDbEntity
  8
3
  6
Continuous
 62
     3
100
AcDbPolyline
 90
        4
 70
     0
 43
0.0
 10
309.0509432812333
 20
425.5000442299667
 42
0.4142135623731
 10
311.0509432812333
 20
427.5000442299667
 10
311.0509432812333
 20
435.5447827484306
 42
0.26230105055338
 10
308.1599511414203
 20
440.6764559770448
  0
LWPOLYLINE
  5
4A3
330
1F
100
AcDbEntity
  8
3
  6
Continuous
 62
     3
100
AcDbPolyline
 90
        4
 70
     0
 43
0.0
 10
265.8400234714874
 20
440.6764559770467
 42
0.2623010505534
 10
262.9490313316732
 20
435.5447827484306
 10
262.949031331674
 20
427.5000442299667
 42
0.41421356237314
 10
264.949031331674
 20
425.500044229967
  0
LWPOLYLINE
  5
4A4
330
1F
100
AcDbEntity
  8
3
  6
Continuous
 62
     3
100
AcDbPolyline
 90
        7
 70
     0
 43
0.0
 10
263.949031331674
 20
435.5447827484306
 10
265.079677089671
 20
435.5447827484306
 42
0.09122267891982
 10
267.5710205007622
 20
436.0031309686414
 10
274.5464117425706
 20
438.6596610920807
 42
-0.2247461153704
 10
280.5183914577042
 20
438.1913256155146
 10
283.5193510024119
 20
436.4714664452067
 42
0.13084094293331
 10
286.9999873064539
 20
435.5447827484282
  0
LWPOLYLINE
  5
4A5
330
1F
100
AcDbEntity
  8
3
  6
Continuous
 62
     3
100
AcDbPolyline
 90
        2
 70
     0
 43
0.0
 10
316.7908050923494
 20
436.9758889437746
 42
0.19873478621275
 10
311.0640854523334
 20
439.1283732984445
  0
LWPOLYLINE
  5
4A6
330
1F
100
AcDbEntity
  8
3
  6
Continuous
 62
     3
100
AcDbPolyline
 90
        2
 70
     0
 43
0.0
 10
262.9358891605753
 20
439.1283732984447
 42
0.19873478621276
 10
257.2091695205586
 20
436.9758889437755
  0
LWPOLYLINE
  5
4A7
330
1F
100
AcDbEntity
  8
3
  6
Continuous
 62
     3
100
AcDbPolyline
 90
        7
 70
     0
 43
0.0
 10
310.0509432812333
 20
435.5447827484306
 10
308.9202975232374
 20
435.5447827484306
 42
-0.09122267891984
 10
306.4289541121454
 20
436.0031309686407
 10
299.4535628703373
 20
438.6596610920807
 42
0.2247461153704
 10
293.4815831552039
 20
438.1913256155145
 10
290.4806236104962
 20
436.4714664452067
 42
-0.13084094293333
 10
286.9999873064539
 20
435.5447827484306
  0
LWPOLYLINE
  5
4A8
330
1F
100
AcDbEntity
  8
3
  6
Continuous
 62
     3
100
AcDbPolyline
 90
        2
 70
     0
 43
0.0
 10
176.7908177858954
 20
436.9758447138073
 42
0.19873478621275
 10
171.0640981458795
 20
439.1283290684772
  0
LWPOLYLINE
  5
4A9
330
1F
100
AcDbEntity
  8
3
  6
Continuous
 62
     3
100
AcDbPolyline
 90
        7
 70
     0
 43
0.0
 10
170.0509559747795
 20
435.5447385184633
 10
168.9203102167835
 20
435.5447385184633
 42
-0.09122267891984
 10
166.4289668056916
 20
436.0030867386734
 10
159.4535755638835
 20
438.6596168621134
 42
0.2247461153704
 10
153.48159584875
 20
438.1912813855473
 10
150.4806363040423
 20
436.4714222152394
 42
-0.13084094293333
 10
147.0
 20
435.5447385184633
  0
LWPOLYLINE
  5
4AA
330
1F
100
AcDbEntity
  8
3
  6
Continuous
 62
     3
100
AcDbPolyline
 90
        4
 70
     0
 43
0.0
 10
169.0509559747795
 20
425.4999999999993
 42
0.4142135623731
 10
171.0509559747795
 20
427.4999999999993
 10
171.0509559747795
 20
435.5447385184633
 42
0.26230105055339
 10
168.1599638349664
 20
440.6764117470776
  0
LWPOLYLINE
  5
4AB
330
1F
100
AcDbEntity
  8
3
  6
Continuous
 62
     3
100
AcDbPolyline
 90
        2
 70
     0
 43
0.0
 10
122.9359018541215
 20
439.1283290684773
 42
0.19873478621276
 10
117.2091822141048
 20
436.9758447138081
  0
LWPOLYLINE
  5
4AC
330
1F
100
AcDbEntity
  8
3
  6
Continuous
 62
     3
100
AcDbPolyline
 90
        4
 70
     0
 43
0.0
 10
125.8400361650335
 20
440.6764117470793
 42
0.26230105055339
 10
122.9490440252193
 20
435.5447385184633
 10
122.9490440252201
 20
427.4999999999993
 42
0.41421356237314
 10
124.9490440252201
 20
425.4999999999996
  0
LWPOLYLINE
  5
4AD
330
1F
100
AcDbEntity
  8
3
  6
Continuous
 62
     3
100
AcDbPolyline
 90
        7
 70
     0
 43
0.0
 10
123.9490440252201
 20
435.5447385184633
 10
125.0796897832171
 20
435.5447385184633
 42
0.09122267891982
 10
127.5710331943082
 20
436.0030867386741
 10
134.5464244361167
 20
438.6596168621134
 42
-0.2247461153704
 10
140.5184041512503
 20
438.1912813855474
 10
143.519363695958
 20
436.4714222152394
 42
0.13084094293331
 10
147.0
 20
435.5447385184609
  0
LINE
  5
4AE
330
1F
100
AcDbEntity
  8
1
 62
     4
100
AcDbLine
 10
96.9999999999998
 20
329.9999999999982
 30
0.0
 11
95.56795747191882
 21
327.96953118926
 31
0.0
  0
LINE
  5
4AF
330
1F
100
AcDbEntity
  8
1
 62
     4
100
AcDbLine
 10
96.9999999999998
 20
329.9999999999982
 30
0.0
 11
94.74458038601288
 21
328.9575836923474
 31
0.0
  0
LEADER
  5
4B0
330
1F
100
AcDbEntity
  8
1
  6
Continuous
 62
     4
100
AcDbLeader
  3
Standard
 71
     0
 76
     3
 10
96.9999999999998
 20
329.9999999999982
 30
0.0
 10
91.00000000000009
 20
325.0
 30
0.0
 10
76.9503821065912
 20
325.0
 30
0.0
  0
LINE
  5
4B1
330
1F
100
AcDbEntity
  8
1
 62
     4
100
AcDbLine
 10
197.0000000000003
 20
298.9999999999982
 30
0.0
 11
199.2554196139872
 21
297.9575836923474
 31
0.0
  0
LINE
  5
4B2
330
1F
100
AcDbEntity
  8
1
 62
     4
100
AcDbLine
 10
197.0000000000003
 20
298.9999999999982
 30
0.0
 11
198.4320425280813
 21
296.96953118926
 31
0.0
  0
LEADER
  5
4B3
330
1F
100
AcDbEntity
  8
1
  6
Continuous
 62
     4
100
AcDbLeader
  3
Standard
 71
     0
 76
     3
 10
197.0000000000003
 20
298.9999999999982
 30
0.0
 10
203.0
 20
294.0
 30
0.0
 10
217.0496178934089
 20
294.0
 30
0.0
  0
LINE
  5
4B4
330
1F
100
AcDbEntity
  8
1
 62
     4
100
AcDbLine
 10
119.0
 20
224.0
 30
0.0
 11
116.6
 21
223.3569219381653
 31
0.0
  0
LINE
  5
4B5
330
1F
100
AcDbEntity
  8
1
 62
     4
100
AcDbLine
 10
119.0
 20
224.0
 30
0.0
 11
116.6
 21
224.6430780618347
 31
0.0
  0
LEADER
  5
4B6
330
1F
100
AcDbEntity
  8
1
  6
Continuous
 62
     4
100
AcDbLeader
  3
Standard
 71
     0
 76
     2
 10
119.0
 20
224.0
 30
0.0
 10
91.0
 20
224.0
 30
0.0
  0
LINE
  5
4B7
330
1F
100
AcDbEntity
  8
1
 62
     4
100
AcDbLine
 10
147.0
 20
182.9999997744018
 30
0.0
 11
149.0156283319081
 21
181.5471433392292
 31
0.0
  0
LINE
  5
4B8
330
1F
100
AcDbEntity
  8
1
 62
     4
100
AcDbLine
 10
147.0
 20
182.9999997744018
 30
0.0
 11
148.0191571224338
 21
180.7339750275366
 31
0.0
  0
LEADER
  5
4B9
330
1F
100
AcDbEntity
  8
1
  6
Continuous
 62
     4
100
AcDbLeader
  3
Standard
 71
     0
 76
     3
 10
147.0
 20
182.9999997744018
 30
0.0
 10
160.0524260393247
 20
167.0053199830718
 30
0.0
 10
174.1020439327336
 20
167.0053199830718
 30
0.0
  0
LINE
  5
4BA
330
1F
100
AcDbEntity
  8
1
 62
     4
100
AcDbLine
 10
197.0
 20
252.0
 30
0.0
 11
199.0501605605786
 21
250.5962938094241
 31
0.0
  0
LINE
  5
4BB
330
1F
100
AcDbEntity
  8
1
 62
     4
100
AcDbLine
 10
197.0
 20
252.0
 30
0.0
 11
198.0736380320101
 21
249.7592744992225
 31
0.0
  0
LEADER
  5
4BC
330
1F
100
AcDbEntity
  8
1
  6
Continuous
 62
     4
100
AcDbLeader
  3
Standard
 71
     0
 76
     3
 10
197.0
 20
252.0
 30
0.0
 10
203.0
 20
245.0
 30
0.0
 10
217.3565884662148
 20
245.0
 30
0.0
  0
LINE
  5
4BD
330
1F
100
AcDbEntity
  8
1
 62
     4
100
AcDbLine
 10
97.0
 20
252.0
 30
0.0
 11
95.92636196798993
 21
249.7592744992225
 31
0.0
  0
LINE
  5
4BE
330
1F
100
AcDbEntity
  8
1
 62
     4
100
AcDbLine
 10
97.0
 20
252.0
 30
0.0
 11
94.9498394394214
 21
250.5962938094241
 31
0.0
  0
LEADER
  5
4BF
330
1F
100
AcDbEntity
  8
1
  6
Continuous
 62
     4
100
AcDbLeader
  3
Standard
 71
     0
 76
     3
 10
97.0
 20
252.0
 30
0.0
 10
91.0
 20
245.0
 30
0.0
 10
74.74711668178259
 20
245.0
 30
0.0
  0
ENDSEC
  0
SECTION
  2
OBJECTS
  0
DICTIONARY
  5
C
330
0
100
AcDbDictionary
281
     1
  3
ACAD_GROUP
350
D
  3
ACAD_LAYOUT
350
1A
  3
ACAD_MATERIAL
350
3B
  3
ACAD_MLEADERSTYLE
350
4C2
  3
ACAD_MLINESTYLE
350
17
  3
ACAD_PLOTSETTINGS
350
19
  3
ACAD_PLOTSTYLENAME
350
E
  3
ACAD_VISUALSTYLE
350
2A
  3
AcDbVariableDictionary
350
4C0
  0
DICTIONARY
  5
D
102
{ACAD_REACTORS
330
C
102
}
330
C
100
AcDbDictionary
281
     1
  0
DICTIONARY
  5
1A
102
{ACAD_REACTORS
330
C
102
}
330
C
100
AcDbDictionary
281
     1
  3
Layout1
350
1E
  3
Layout2
350
26
  3
Model
350
22
  0
DICTIONARY
  5
3B
102
{ACAD_REACTORS
330
C
102
}
330
C
100
AcDbDictionary
281
     1
  3
ByBlock
350
3D
  3
ByLayer
350
3C
  3
Global
350
3E
  0
DICTIONARY
  5
4C2
102
{ACAD_REACTORS
330
C
102
}
330
C
100
AcDbDictionary
281
     1
  0
DICTIONARY
  5
17
102
{ACAD_REACTORS
330
C
102
}
330
C
100
AcDbDictionary
281
     1
  3
Standard
350
18
  0
DICTIONARY
  5
19
102
{ACAD_REACTORS
330
C
102
}
330
C
100
AcDbDictionary
281
     1
  0
ACDBDICTIONARYWDFLT
  5
E
102
{ACAD_REACTORS
330
C
102
}
330
C
100
AcDbDictionary
281
     1
  3
Normal
350
F
100
AcDbDictionaryWithDefault
340
F
  0
DICTIONARY
  5
2A
102
{ACAD_REACTORS
330
C
102
}
330
C
100
AcDbDictionary
281
     1
  3
2dWireframe
350
2F
  3
3D Hidden
350
31
  3
3dWireframe
350
30
  3
Basic
350
32
  3
Brighten
350
36
  3
ColorChange
350
3A
  3
Conceptual
350
34
  3
Dim
350
35
  3
Facepattern
350
39
  3
Flat
350
2B
  3
FlatWithEdges
350
2C
  3
Gouraud
350
2D
  3
GouraudWithEdges
350
2E
  3
Linepattern
350
38
  3
Realistic
350
33
  3
Thicken
350
37
  0
DICTIONARY
  5
4C0
102
{ACAD_REACTORS
330
C
102
}
330
C
100
AcDbDictionary
281
     1
  3
DIMASSOC
350
4C3
  3
HIDETEXT
350
4C4
  0
LAYOUT
  5
1E
102
{ACAD_REACTORS
330
1A
102
}
330
1A
100
AcDbPlotSettings
  1

  2
none_device
  4

  6

 40
0.0
 41
0.0
 42
0.0
 43
0.0
 44
0.0
 45
0.0
 46
0.0
 47
0.0
 48
0.0
 49
0.0
140
0.0
141
0.0
142
1.0
143
1.0
 70
   688
 72
     0
 73
     0
 74
     5
  7

 75
    16
147
1.0
148
0.0
149
0.0
100
AcDbLayout
  1
Layout1
 70
     1
 71
     1
 10
0.0
 20
0.0
 11
12.0
 21
9.0
 12
0.0
 22
0.0
 32
0.0
 14
1.00000000000000E+20
 24
1.00000000000000E+20
 34
1.00000000000000E+20
 15
-1.00000000000000E+20
 25
-1.00000000000000E+20
 35
-1.00000000000000E+20
146
0.0
 13
0.0
 23
0.0
 33
0.0
 16
1.0
 26
0.0
 36
0.0
 17
0.0
 27
1.0
 37
0.0
 76
     0
330
1B
  0
LAYOUT
  5
26
102
{ACAD_REACTORS
330
1A
102
}
330
1A
100
AcDbPlotSettings
  1

  2
none_device
  4

  6

 40
0.0
 41
0.0
 42
0.0
 43
0.0
 44
0.0
 45
0.0
 46
0.0
 47
0.0
 48
0.0
 49
0.0
140
0.0
141
0.0
142
1.0
143
1.0
 70
   688
 72
     0
 73
     0
 74
     5
  7

 75
    16
147
1.0
148
0.0
149
0.0
100
AcDbLayout
  1
Layout2
 70
     1
 71
     2
 10
0.0
 20
0.0
 11
0.0
 21
0.0
 12
0.0
 22
0.0
 32
0.0
 14
0.0
 24
0.0
 34
0.0
 15
0.0
 25
0.0
 35
0.0
146
0.0
 13
0.0
 23
0.0
 33
0.0
 16
1.0
 26
0.0
 36
0.0
 17
0.0
 27
1.0
 37
0.0
 76
     0
330
23
  0
LAYOUT
  5
22
102
{ACAD_REACTORS
330
1A
102
}
330
1A
100
AcDbPlotSettings
  1

  2
none_device
  4

  6

 40
0.0
 41
0.0
 42
0.0
 43
0.0
 44
0.0
 45
0.0
 46
0.0
 47
0.0
 48
0.0
 49
0.0
140
0.0
141
0.0
142
1.0
143
1.0
 70
  1712
 72
     0
 73
     0
 74
     0
  7

 75
     0
147
1.0
148
0.0
149
0.0
100
AcDbLayout
  1
Model
 70
     1
 71
     0
 10
0.0
 20
0.0
 11
12.0
 21
9.0
 12
0.0
 22
0.0
 32
0.0
 14
74.74711668178259
 24
154.0
 34
0.0
 15
317.9999873064534
 25
566.0
 35
0.0
146
0.0
 13
0.0
 23
0.0
 33
0.0
 16
1.0
 26
0.0
 36
0.0
 17
0.0
 27
1.0
 37
0.0
 76
     0
330
1F
331
29
  0
MATERIAL
  5
3D
102
{ACAD_REACTORS
330
3B
102
}
102
{ACAD_XDICTIONARY
360
4E7
102
}
330
3B
100
AcDbMaterial
  1
ByBlock
  0
MATERIAL
  5
3C
102
{ACAD_REACTORS
330
3B
102
}
102
{ACAD_XDICTIONARY
360
4E5
102
}
330
3B
100
AcDbMaterial
  1
ByLayer
  0
MATERIAL
  5
3E
102
{ACAD_REACTORS
330
3B
102
}
102
{ACAD_XDICTIONARY
360
4E9
102
}
330
3B
100
AcDbMaterial
  1
Global
  0
MLINESTYLE
  5
18
102
{ACAD_REACTORS
330
17
102
}
330
17
100
AcDbMlineStyle
  2
Standard
 70
     0
  3

 62
   256
 51
90.0
 52
90.0
 71
     2
 49
0.5
 62
   256
  6
BYLAYER
 49
-0.5
 62
   256
  6
BYLAYER
  0
ACDBPLACEHOLDER
  5
F
102
{ACAD_REACTORS
330
E
102
}
330
E
  0
VISUALSTYLE
  5
2F
102
{ACAD_REACTORS
330
2A
102
}
102
{ACAD_XDICTIONARY
360
4CD
102
}
330
2A
100
AcDbVisualStyle
  2
2dWireframe
 70
     4
 71
     0
 72
     2
 73
     0
 90
        0
 40
-0.6
 41
-30.0
 62
     5
 63
     7
 74
     1
 91
        4
 64
     7
 65
   257
 75
     1
175
     1
 42
1.0
 92
        0
 66
   257
 43
1.0
 76
     1
 77
     6
 78
     2
 67
     7
 79
     5
170
     0
171
     0
290
     0
174
     0
 93
        1
 44
0.0
173
     0
291
     0
 45
0.0
1001
ACAD
1000
AcDbSavedByObjectVersion
1070
     0
  0
VISUALSTYLE
  5
31
102
{ACAD_REACTORS
330
2A
102
}
102
{ACAD_XDICTIONARY
360
4D1
102
}
330
2A
100
AcDbVisualStyle
  2
3D Hidden
 70
     6
 71
     1
 72
     2
 73
     2
 90
        0
 40
-0.6
 41
-30.0
 62
     5
 63
     7
 74
     2
 91
        2
 64
     7
 65
   257
 75
     2
175
     1
 42
40.0
 92
        0
 66
   257
 43
1.0
 76
     1
 77
     6
 78
     2
 67
     7
 79
     3
170
     0
171
     0
290
     0
174
     0
 93
        1
 44
0.0
173
     0
291
     0
 45
0.0
1001
ACAD
1000
AcDbSavedByObjectVersion
1070
     0
  0
VISUALSTYLE
  5
30
102
{ACAD_REACTORS
330
2A
102
}
102
{ACAD_XDICTIONARY
360
4CF
102
}
330
2A
100
AcDbVisualStyle
  2
3dWireframe
 70
     5
 71
     0
 72
     2
 73
     0
 90
        0
 40
-0.6
 41
-30.0
 62
     5
 63
     7
 74
     1
 91
        4
 64
     7
 65
   257
 75
     1
175
     1
 42
1.0
 92
        0
 66
   257
 43
1.0
 76
     1
 77
     6
 78
     2
 67
     7
 79
     5
170
     0
171
     0
290
     0
174
     0
 93
        1
 44
0.0
173
     0
291
     0
 45
0.0
1001
ACAD
1000
AcDbSavedByObjectVersion
1070
     0
  0
VISUALSTYLE
  5
32
102
{ACAD_REACTORS
330
2A
102
}
102
{ACAD_XDICTIONARY
360
4D3
102
}
330
2A
100
AcDbVisualStyle
  2
Basic
 70
     7
 71
     1
 72
     0
 73
     1
 90
        0
 40
-0.6
 41
-30.0
 62
     5
 63
     7
 74
     0
 91
        4
 64
     7
 65
   257
 75
     1
175
     1
 42
1.0
 92
        8
 66
     7
 43
1.0
 76
     1
 77
     6
 78
     2
 67
     7
 79
     5
170
     0
171
     0
290
     0
174
     0
 93
        1
 44
0.0
173
     0
291
     1
 45
0.0
1001
ACAD
1000
AcDbSavedByObjectVersion
1070
     0
  0
VISUALSTYLE
  5
36
102
{ACAD_REACTORS
330
2A
102
}
102
{ACAD_XDICTIONARY
360
4DB
102
}
330
2A
100
AcDbVisualStyle
  2
Brighten
 70
    12
 71
     2
 72
     2
 73
     0
 90
        0
 40
-0.6
 41
-30.0
 62
     5
 63
     7
 74
     1
 91
        4
 64
     7
 65
   257
 75
     1
175
     1
 42
1.0
 92
        8
 66
     7
 43
1.0
 76
     1
 77
     6
 78
     2
 67
     7
 79
     5
170
     0
171
     0
290
     0
174
     0
 93
        1
 44
50.0
173
     0
291
     1
 45
0.0
1001
ACAD
1000
AcDbSavedByObjectVersion
1070
     0
  0
VISUALSTYLE
  5
3A
102
{ACAD_REACTORS
330
2A
102
}
102
{ACAD_XDICTIONARY
360
4E3
102
}
330
2A
100
AcDbVisualStyle
  2
ColorChange
 70
    16
 71
     2
 72
     2
 73
     3
 90
        0
 40
-0.6
 41
-30.0
 62
     5
 63
     8
 74
     1
 91
        4
 64
     7
 65
   257
 75
     1
175
     1
 42
1.0
 92
        8
 66
     8
 43
1.0
 76
     1
 77
     6
 78
     2
 67
     7
 79
     5
170
     0
171
     0
290
     0
174
     0
 93
        1
 44
0.0
173
     0
291
     1
 45
0.0
1001
ACAD
1000
AcDbSavedByObjectVersion
1070
     0
  0
VISUALSTYLE
  5
34
102
{ACAD_REACTORS
330
2A
102
}
102
{ACAD_XDICTIONARY
360
4D7
102
}
330
2A
100
AcDbVisualStyle
  2
Conceptual
 70
     9
 71
     3
 72
     2
 73
     0
 90
        0
 40
-0.6
 41
-30.0
 62
     5
 63
     7
 74
     2
 91
        2
 64
     7
 65
   257
 75
     1
175
     1
 42
40.0
 92
        8
 66
     7
 43
1.0
 76
     1
 77
     6
 78
     2
 67
     7
 79
     3
170
     0
171
     0
290
     0
174
     0
 93
        1
 44
0.0
173
     0
291
     0
 45
0.0
1001
ACAD
1000
AcDbSavedByObjectVersion
1070
     0
  0
VISUALSTYLE
  5
35
102
{ACAD_REACTORS
330
2A
102
}
102
{ACAD_XDICTIONARY
360
4D9
102
}
330
2A
100
AcDbVisualStyle
  2
Dim
 70
    11
 71
     2
 72
     2
 73
     0
 90
        0
 40
-0.6
 41
-30.0
 62
     5
 63
     7
 74
     1
 91
        4
 64
     7
 65
   257
 75
     1
175
     1
 42
1.0
 92
        8
 66
     7
 43
1.0
 76
     1
 77
     6
 78
     2
 67
     7
 79
     5
170
     0
171
     0
290
     0
174
     0
 93
        1
 44
-50.0
173
     0
291
     1
 45
0.0
1001
ACAD
1000
AcDbSavedByObjectVersion
1070
     0
  0
VISUALSTYLE
  5
39
102
{ACAD_REACTORS
330
2A
102
}
102
{ACAD_XDICTIONARY
360
4E1
102
}
330
2A
100
AcDbVisualStyle
  2
Facepattern
 70
    15
 71
     2
 72
     2
 73
     0
 90
        0
 40
-0.6
 41
-30.0
 62
     5
 63
     7
 74
     1
 91
        4
 64
     7
 65
   257
 75
     1
175
     1
 42
1.0
 92
        8
 66
     7
 43
1.0
 76
     1
 77
     6
 78
     2
 67
     7
 79
     5
170
     0
171
     0
290
     0
174
     0
 93
        1
 44
0.0
173
     0
291
     1
 45
0.0
1001
ACAD
1000
AcDbSavedByObjectVersion
1070
     0
  0
VISUALSTYLE
  5
2B
102
{ACAD_REACTORS
330
2A
102
}
102
{ACAD_XDICTIONARY
360
4C5
102
}
330
2A
100
AcDbVisualStyle
  2
Flat
 70
     0
 71
     2
 72
     1
 73
     1
 90
        2
 40
-0.6
 41
30.0
 62
     5
 63
     7
 74
     0
 91
        4
 64
     7
 65
   257
 75
     1
175
     1
 42
1.0
 92
        8
 66
     7
 43
1.0
 76
     1
 77
     6
 78
     2
 67
     7
 79
     5
170
     0
171
     0
290
     0
174
     0
 93
       13
 44
0.0
173
     0
291
     1
 45
0.0
1001
ACAD
1000
AcDbSavedByObjectVersion
1070
     0
  0
VISUALSTYLE
  5
2C
102
{ACAD_REACTORS
330
2A
102
}
102
{ACAD_XDICTIONARY
360
4C7
102
}
330
2A
100
AcDbVisualStyle
  2
FlatWithEdges
 70
     1
 71
     2
 72
     1
 73
     1
 90
        2
 40
-0.6
 41
30.0
 62
     5
 63
     7
 74
     1
 91
        4
 64
     7
 65
   257
 75
     1
175
     1
 42
1.0
 92
        0
 66
   257
 43
1.0
 76
     1
 77
     6
 78
     2
 67
     7
 79
     5
170
     0
171
     0
290
     0
174
     0
 93
       13
 44
0.0
173
     0
291
     1
 45
0.0
1001
ACAD
1000
AcDbSavedByObjectVersion
1070
     0
  0
VISUALSTYLE
  5
2D
102
{ACAD_REACTORS
330
2A
102
}
102
{ACAD_XDICTIONARY
360
4C9
102
}
330
2A
100
AcDbVisualStyle
  2
Gouraud
 70
     2
 71
     2
 72
     2
 73
     1
 90
        2
 40
-0.6
 41
30.0
 62
     5
 63
     7
 74
     0
 91
        4
 64
     7
 65
   257
 75
     1
175
     1
 42
1.0
 92
        0
 66
     7
 43
1.0
 76
     1
 77
     6
 78
     2
 67
     7
 79
     5
170
     0
171
     0
290
     0
174
     0
 93
       13
 44
0.0
173
     0
291
     1
 45
0.0
1001
ACAD
1000
AcDbSavedByObjectVersion
1070
     0
  0
VISUALSTYLE
  5
2E
102
{ACAD_REACTORS
330
2A
102
}
102
{ACAD_XDICTIONARY
360
4CB
102
}
330
2A
100
AcDbVisualStyle
  2
GouraudWithEdges
 70
     3
 71
     2
 72
     2
 73
     1
 90
        2
 40
-0.6
 41
30.0
 62
     5
 63
     7
 74
     1
 91
        4
 64
     7
 65
   257
 75
     1
175
     1
 42
1.0
 92
        0
 66
   257
 43
1.0
 76
     1
 77
     6
 78
     2
 67
     7
 79
     5
170
     0
171
     0
290
     0
174
     0
 93
       13
 44
0.0
173
     0
291
     1
 45
0.0
1001
ACAD
1000
AcDbSavedByObjectVersion
1070
     0
  0
VISUALSTYLE
  5
38
102
{ACAD_REACTORS
330
2A
102
}
102
{ACAD_XDICTIONARY
360
4DF
102
}
330
2A
100
AcDbVisualStyle
  2
Linepattern
 70
    14
 71
     2
 72
     2
 73
     0
 90
        0
 40
-0.6
 41
-30.0
 62
     5
 63
     7
 74
     1
 91
        4
 64
     7
 65
   257
 75
     7
175
     7
 42
1.0
 92
        8
 66
     7
 43
1.0
 76
     1
 77
     6
 78
     2
 67
     7
 79
     5
170
     0
171
     0
290
     0
174
     0
 93
        1
 44
0.0
173
     0
291
     1
 45
0.0
1001
ACAD
1000
AcDbSavedByObjectVersion
1070
     0
  0
VISUALSTYLE
  5
33
102
{ACAD_REACTORS
330
2A
102
}
102
{ACAD_XDICTIONARY
360
4D5
102
}
330
2A
100
AcDbVisualStyle
  2
Realistic
 70
     8
 71
     2
 72
     2
 73
     0
 90
        0
 40
-0.6
 41
-30.0
 62
     5
 63
     7
 74
     1
 91
        0
 64
     7
 65
   257
 75
     1
175
     1
 42
1.0
 92
        8
 66
     8
 43
1.0
 76
     1
 77
     6
 78
     2
 67
     7
 79
     5
170
     0
171
     0
290
     0
174
     0
 93
       13
 44
0.0
173
     0
291
     0
 45
0.0
1001
ACAD
1000
AcDbSavedByObjectVersion
1070
     0
  0
VISUALSTYLE
  5
37
102
{ACAD_REACTORS
330
2A
102
}
102
{ACAD_XDICTIONARY
360
4DD
102
}
330
2A
100
AcDbVisualStyle
  2
Thicken
 70
    13
 71
     2
 72
     2
 73
     0
 90
        0
 40
-0.6
 41
-30.0
 62
     5
 63
     7
 74
     1
 91
        4
 64
     7
 65
   257
 75
     1
175
     1
 42
1.0
 92
       12
 66
     7
 43
1.0
 76
     1
 77
     6
 78
     2
 67
     7
 79
     5
170
     0
171
     0
290
     0
174
     0
 93
        1
 44
0.0
173
     0
291
     1
 45
0.0
1001
ACAD
1000
AcDbSavedByObjectVersion
1070
     0
  0
DICTIONARYVAR
  5
4C3
102
{ACAD_REACTORS
330
4C0
102
}
330
4C0
100
DictionaryVariables
280
     0
  1
2
  0
DICTIONARYVAR
  5
4C4
102
{ACAD_REACTORS
330
4C0
102
}
330
4C0
100
DictionaryVariables
280
     0
  1
1
  0
DICTIONARY
  5
4E7
330
3D
100
AcDbDictionary
280
     1
281
     1
  3
ACAD_XREC_ROUNDTRIP
360
4E8
  0
DICTIONARY
  5
4E5
330
3C
100
AcDbDictionary
280
     1
281
     1
  3
ACAD_XREC_ROUNDTRIP
360
4E6
  0
DICTIONARY
  5
4E9
330
3E
100
AcDbDictionary
280
     1
281
     1
  3
ACAD_XREC_ROUNDTRIP
360
4EA
  0
DICTIONARY
  5
4CD
330
2F
100
AcDbDictionary
280
     1
281
     1
  3
ACAD_XREC_ROUNDTRIP
360
4CE
  0
DICTIONARY
  5
4D1
330
31
100
AcDbDictionary
280
     1
281
     1
  3
ACAD_XREC_ROUNDTRIP
360
4D2
  0
DICTIONARY
  5
4CF
330
30
100
AcDbDictionary
280
     1
281
     1
  3
ACAD_XREC_ROUNDTRIP
360
4D0
  0
DICTIONARY
  5
4D3
330
32
100
AcDbDictionary
280
     1
281
     1
  3
ACAD_XREC_ROUNDTRIP
360
4D4
  0
DICTIONARY
  5
4DB
330
36
100
AcDbDictionary
280
     1
281
     1
  3
ACAD_XREC_ROUNDTRIP
360
4DC
  0
DICTIONARY
  5
4E3
330
3A
100
AcDbDictionary
280
     1
281
     1
  3
ACAD_XREC_ROUNDTRIP
360
4E4
  0
DICTIONARY
  5
4D7
330
34
100
AcDbDictionary
280
     1
281
     1
  3
ACAD_XREC_ROUNDTRIP
360
4D8
  0
DICTIONARY
  5
4D9
330
35
100
AcDbDictionary
280
     1
281
     1
  3
ACAD_XREC_ROUNDTRIP
360
4DA
  0
DICTIONARY
  5
4E1
330
39
100
AcDbDictionary
280
     1
281
     1
  3
ACAD_XREC_ROUNDTRIP
360
4E2
  0
DICTIONARY
  5
4C5
330
2B
100
AcDbDictionary
280
     1
281
     1
  3
ACAD_XREC_ROUNDTRIP
360
4C6
  0
DICTIONARY
  5
4C7
330
2C
100
AcDbDictionary
280
     1
281
     1
  3
ACAD_XREC_ROUNDTRIP
360
4C8
  0
DICTIONARY
  5
4C9
330
2D
100
AcDbDictionary
280
     1
281
     1
  3
ACAD_XREC_ROUNDTRIP
360
4CA
  0
DICTIONARY
  5
4CB
330
2E
100
AcDbDictionary
280
     1
281
     1
  3
ACAD_XREC_ROUNDTRIP
360
4CC
  0
DICTIONARY
  5
4DF
330
38
100
AcDbDictionary
280
     1
281
     1
  3
ACAD_XREC_ROUNDTRIP
360
4E0
  0
DICTIONARY
  5
4D5
330
33
100
AcDbDictionary
280
     1
281
     1
  3
ACAD_XREC_ROUNDTRIP
360
4D6
  0
DICTIONARY
  5
4DD
330
37
100
AcDbDictionary
280
     1
281
     1
  3
ACAD_XREC_ROUNDTRIP
360
4DE
  0
XRECORD
  5
4E8
102
{ACAD_REACTORS
330
4E7
102
}
330
4E7
100
AcDbXrecord
280
     1
102
MATERIAL
148
0.0
149
0.0
149
0.0
 93
        0
 94
      127
282
     0
 72
     1
 77
     1
171
     1
175
     1
179
     1
273
     0
  0
XRECORD
  5
4E6
102
{ACAD_REACTORS
330
4E5
102
}
330
4E5
100
AcDbXrecord
280
     1
102
MATERIAL
148
0.0
149
0.0
149
0.0
 93
        0
 94
      127
282
     0
 72
     1
 77
     1
171
     1
175
     1
179
     1
273
     0
  0
XRECORD
  5
4EA
102
{ACAD_REACTORS
330
4E9
102
}
330
4E9
100
AcDbXrecord
280
     1
102
MATERIAL
148
0.0
149
0.0
149
0.0
 93
        0
 94
      127
282
     0
 72
     1
 77
     1
171
     1
175
     1
179
     1
273
     0
  0
XRECORD
  5
4CE
102
{ACAD_REACTORS
330
4CD
102
}
330
4CD
100
AcDbXrecord
280
     1
102
RTVSPropertyOp0
 70
     1
102
RTVSPropertyOp1
 70
     1
102
RTVSPropertyOp2
 70
     1
102
RTVSPropertyOp3
 70
     1
102
RTVSPropertyOp4
 70
     1
102
RTVSPropertyOp5
 70
     1
102
RTVSPropertyOp6
 70
     1
102
RTVSPropertyOp7
 70
     1
102
RTVSPropertyOp8
 70
     1
102
RTVSPropertyOp9
 70
     1
102
RTVSPropertyOp10
 70
     1
102
RTVSPropertyOp11
 70
     1
102
RTVSPropertyOp12
 70
     1
102
RTVSPropertyOp13
 70
     1
102
RTVSPropertyOp14
 70
     1
102
RTVSPropertyOp15
 70
     1
102
RTVSPropertyOp16
 70
     1
102
RTVSPropertyOp17
 70
     1
102
RTVSPropertyOp18
 70
     1
102
RTVSPropertyOp19
 70
     1
102
RTVSPropertyOp20
 70
     1
102
RTVSPropertyOp21
 70
     1
102
RTVSPropertyOp22
 70
     1
102
RTVSPropertyOp23
 70
     1
102
RTVSPropertyOp24
 70
     1
102
RTVSPropertyOp25
 70
     1
102
RTVSPropertyOp26
 70
     1
102
RTVSPropertyOp27
 70
     1
  0
XRECORD
  5
4D2
102
{ACAD_REACTORS
330
4D1
102
}
330
4D1
100
AcDbXrecord
280
     1
102
RTVSPropertyOp0
 70
     1
102
RTVSPropertyOp1
 70
     1
102
RTVSPropertyOp2
 70
     1
102
RTVSPropertyOp3
 70
     1
102
RTVSPropertyOp4
 70
     1
102
RTVSPropertyOp5
 70
     1
102
RTVSPropertyOp6
 70
     1
102
RTVSPropertyOp7
 70
     1
102
RTVSPropertyOp8
 70
     1
102
RTVSPropertyOp9
 70
     1
102
RTVSPropertyOp10
 70
     1
102
RTVSPropertyOp11
 70
     1
102
RTVSPropertyOp12
 70
     1
102
RTVSPropertyOp13
 70
     1
102
RTVSPropertyOp14
 70
     1
102
RTVSPropertyOp15
 70
     1
102
RTVSPropertyOp16
 70
     1
102
RTVSPropertyOp17
 70
     1
102
RTVSPropertyOp18
 70
     1
102
RTVSPropertyOp19
 70
     1
102
RTVSPropertyOp20
 70
     1
102
RTVSPropertyOp21
 70
     1
102
RTVSPropertyOp22
 70
     1
102
RTVSPropertyOp23
 70
     1
102
RTVSPropertyOp24
 70
     1
102
RTVSPropertyOp25
 70
     1
102
RTVSPropertyOp26
 70
     1
102
RTVSPropertyOp27
 70
     1
  0
XRECORD
  5
4D0
102
{ACAD_REACTORS
330
4CF
102
}
330
4CF
100
AcDbXrecord
280
     1
102
RTVSPropertyOp0
 70
     1
102
RTVSPropertyOp1
 70
     1
102
RTVSPropertyOp2
 70
     1
102
RTVSPropertyOp3
 70
     1
102
RTVSPropertyOp4
 70
     1
102
RTVSPropertyOp5
 70
     1
102
RTVSPropertyOp6
 70
     1
102
RTVSPropertyOp7
 70
     1
102
RTVSPropertyOp8
 70
     1
102
RTVSPropertyOp9
 70
     1
102
RTVSPropertyOp10
 70
     1
102
RTVSPropertyOp11
 70
     1
102
RTVSPropertyOp12
 70
     1
102
RTVSPropertyOp13
 70
     1
102
RTVSPropertyOp14
 70
     1
102
RTVSPropertyOp15
 70
     1
102
RTVSPropertyOp16
 70
     1
102
RTVSPropertyOp17
 70
     1
102
RTVSPropertyOp18
 70
     1
102
RTVSPropertyOp19
 70
     1
102
RTVSPropertyOp20
 70
     1
102
RTVSPropertyOp21
 70
     1
102
RTVSPropertyOp22
 70
     1
102
RTVSPropertyOp23
 70
     1
102
RTVSPropertyOp24
 70
     1
102
RTVSPropertyOp25
 70
     1
102
RTVSPropertyOp26
 70
     1
102
RTVSPropertyOp27
 70
     1
  0
XRECORD
  5
4D4
102
{ACAD_REACTORS
330
4D3
102
}
330
4D3
100
AcDbXrecord
280
     1
102
RTVSPropertyOp0
 70
     1
102
RTVSPropertyOp1
 70
     1
102
RTVSPropertyOp2
 70
     1
102
RTVSPropertyOp3
 70
     1
102
RTVSPropertyOp4
 70
     1
102
RTVSPropertyOp5
 70
     1
102
RTVSPropertyOp6
 70
     1
102
RTVSPropertyOp7
 70
     1
102
RTVSPropertyOp8
 70
     1
102
RTVSPropertyOp9
 70
     1
102
RTVSPropertyOp10
 70
     1
102
RTVSPropertyOp11
 70
     1
102
RTVSPropertyOp12
 70
     1
102
RTVSPropertyOp13
 70
     1
102
RTVSPropertyOp14
 70
     1
102
RTVSPropertyOp15
 70
     1
102
RTVSPropertyOp16
 70
     1
102
RTVSPropertyOp17
 70
     1
102
RTVSPropertyOp18
 70
     1
102
RTVSPropertyOp19
 70
     1
102
RTVSPropertyOp20
 70
     1
102
RTVSPropertyOp21
 70
     1
102
RTVSPropertyOp22
 70
     1
102
RTVSPropertyOp23
 70
     1
102
RTVSPropertyOp24
 70
     1
102
RTVSPropertyOp25
 70
     1
102
RTVSPropertyOp26
 70
     1
102
RTVSPropertyOp27
 70
     1
  0
XRECORD
  5
4DC
102
{ACAD_REACTORS
330
4DB
102
}
330
4DB
100
AcDbXrecord
280
     1
102
RTVSPropertyOp0
 70
     1
102
RTVSPropertyOp1
 70
     1
102
RTVSPropertyOp2
 70
     1
102
RTVSPropertyOp3
 70
     1
102
RTVSPropertyOp4
 70
     1
102
RTVSPropertyOp5
 70
     1
102
RTVSPropertyOp6
 70
     1
102
RTVSPropertyOp7
 70
     1
102
RTVSPropertyOp8
 70
     1
102
RTVSPropertyOp9
 70
     1
102
RTVSPropertyOp10
 70
     1
102
RTVSPropertyOp11
 70
     1
102
RTVSPropertyOp12
 70
     1
102
RTVSPropertyOp13
 70
     1
102
RTVSPropertyOp14
 70
     1
102
RTVSPropertyOp15
 70
     1
102
RTVSPropertyOp16
 70
     1
102
RTVSPropertyOp17
 70
     1
102
RTVSPropertyOp18
 70
     1
102
RTVSPropertyOp19
 70
     1
102
RTVSPropertyOp20
 70
     1
102
RTVSPropertyOp21
 70
     1
102
RTVSPropertyOp22
 70
     1
102
RTVSPropertyOp23
 70
     1
102
RTVSPropertyOp24
 70
     1
102
RTVSPropertyOp25
 70
     1
102
RTVSPropertyOp26
 70
     1
102
RTVSPropertyOp27
 70
     1
  0
XRECORD
  5
4E4
102
{ACAD_REACTORS
330
4E3
102
}
330
4E3
100
AcDbXrecord
280
     1
102
RTVSPropertyOp0
 70
     1
102
RTVSPropertyOp1
 70
     1
102
RTVSPropertyOp2
 70
     1
102
RTVSPropertyOp3
 70
     1
102
RTVSPropertyOp4
 70
     1
102
RTVSPropertyOp5
 70
     1
102
RTVSPropertyOp6
 70
     1
102
RTVSPropertyOp7
 70
     1
102
RTVSPropertyOp8
 70
     1
102
RTVSPropertyOp9
 70
     1
102
RTVSPropertyOp10
 70
     1
102
RTVSPropertyOp11
 70
     1
102
RTVSPropertyOp12
 70
     1
102
RTVSPropertyOp13
 70
     1
102
RTVSPropertyOp14
 70
     1
102
RTVSPropertyOp15
 70
     1
102
RTVSPropertyOp16
 70
     1
102
RTVSPropertyOp17
 70
     1
102
RTVSPropertyOp18
 70
     1
102
RTVSPropertyOp19
 70
     1
102
RTVSPropertyOp20
 70
     1
102
RTVSPropertyOp21
 70
     1
102
RTVSPropertyOp22
 70
     1
102
RTVSPropertyOp23
 70
     1
102
RTVSPropertyOp24
 70
     1
102
RTVSPropertyOp25
 70
     1
102
RTVSPropertyOp26
 70
     1
102
RTVSPropertyOp27
 70
     1
  0
XRECORD
  5
4D8
102
{ACAD_REACTORS
330
4D7
102
}
330
4D7
100
AcDbXrecord
280
     1
102
RTVSPropertyOp0
 70
     1
102
RTVSPropertyOp1
 70
     1
102
RTVSPropertyOp2
 70
     1
102
RTVSPropertyOp3
 70
     1
102
RTVSPropertyOp4
 70
     1
102
RTVSPropertyOp5
 70
     1
102
RTVSPropertyOp6
 70
     1
102
RTVSPropertyOp7
 70
     1
102
RTVSPropertyOp8
 70
     1
102
RTVSPropertyOp9
 70
     1
102
RTVSPropertyOp10
 70
     1
102
RTVSPropertyOp11
 70
     1
102
RTVSPropertyOp12
 70
     1
102
RTVSPropertyOp13
 70
     1
102
RTVSPropertyOp14
 70
     1
102
RTVSPropertyOp15
 70
     1
102
RTVSPropertyOp16
 70
     1
102
RTVSPropertyOp17
 70
     1
102
RTVSPropertyOp18
 70
     1
102
RTVSPropertyOp19
 70
     1
102
RTVSPropertyOp20
 70
     1
102
RTVSPropertyOp21
 70
     1
102
RTVSPropertyOp22
 70
     1
102
RTVSPropertyOp23
 70
     1
102
RTVSPropertyOp24
 70
     1
102
RTVSPropertyOp25
 70
     1
102
RTVSPropertyOp26
 70
     1
102
RTVSPropertyOp27
 70
     1
  0
XRECORD
  5
4DA
102
{ACAD_REACTORS
330
4D9
102
}
330
4D9
100
AcDbXrecord
280
     1
102
RTVSPropertyOp0
 70
     1
102
RTVSPropertyOp1
 70
     1
102
RTVSPropertyOp2
 70
     1
102
RTVSPropertyOp3
 70
     1
102
RTVSPropertyOp4
 70
     1
102
RTVSPropertyOp5
 70
     1
102
RTVSPropertyOp6
 70
     1
102
RTVSPropertyOp7
 70
     1
102
RTVSPropertyOp8
 70
     1
102
RTVSPropertyOp9
 70
     1
102
RTVSPropertyOp10
 70
     1
102
RTVSPropertyOp11
 70
     1
102
RTVSPropertyOp12
 70
     1
102
RTVSPropertyOp13
 70
     1
102
RTVSPropertyOp14
 70
     1
102
RTVSPropertyOp15
 70
     1
102
RTVSPropertyOp16
 70
     1
102
RTVSPropertyOp17
 70
     1
102
RTVSPropertyOp18
 70
     1
102
RTVSPropertyOp19
 70
     1
102
RTVSPropertyOp20
 70
     1
102
RTVSPropertyOp21
 70
     1
102
RTVSPropertyOp22
 70
     1
102
RTVSPropertyOp23
 70
     1
102
RTVSPropertyOp24
 70
     1
102
RTVSPropertyOp25
 70
     1
102
RTVSPropertyOp26
 70
     1
102
RTVSPropertyOp27
 70
     1
  0
XRECORD
  5
4E2
102
{ACAD_REACTORS
330
4E1
102
}
330
4E1
100
AcDbXrecord
280
     1
102
RTVSPropertyOp0
 70
     1
102
RTVSPropertyOp1
 70
     1
102
RTVSPropertyOp2
 70
     1
102
RTVSPropertyOp3
 70
     1
102
RTVSPropertyOp4
 70
     1
102
RTVSPropertyOp5
 70
     1
102
RTVSPropertyOp6
 70
     1
102
RTVSPropertyOp7
 70
     1
102
RTVSPropertyOp8
 70
     1
102
RTVSPropertyOp9
 70
     1
102
RTVSPropertyOp10
 70
     1
102
RTVSPropertyOp11
 70
     1
102
RTVSPropertyOp12
 70
     1
102
RTVSPropertyOp13
 70
     1
102
RTVSPropertyOp14
 70
     1
102
RTVSPropertyOp15
 70
     1
102
RTVSPropertyOp16
 70
     1
102
RTVSPropertyOp17
 70
     1
102
RTVSPropertyOp18
 70
     1
102
RTVSPropertyOp19
 70
     1
102
RTVSPropertyOp20
 70
     1
102
RTVSPropertyOp21
 70
     1
102
RTVSPropertyOp22
 70
     1
102
RTVSPropertyOp23
 70
     1
102
RTVSPropertyOp24
 70
     1
102
RTVSPropertyOp25
 70
     1
102
RTVSPropertyOp26
 70
     1
102
RTVSPropertyOp27
 70
     1
  0
XRECORD
  5
4C6
102
{ACAD_REACTORS
330
4C5
102
}
330
4C5
100
AcDbXrecord
280
     1
102
RTVSPropertyOp0
 70
     1
102
RTVSPropertyOp1
 70
     1
102
RTVSPropertyOp2
 70
     1
102
RTVSPropertyOp3
 70
     1
102
RTVSPropertyOp4
 70
     1
102
RTVSPropertyOp5
 70
     1
102
RTVSPropertyOp6
 70
     1
102
RTVSPropertyOp7
 70
     1
102
RTVSPropertyOp8
 70
     1
102
RTVSPropertyOp9
 70
     1
102
RTVSPropertyOp10
 70
     1
102
RTVSPropertyOp11
 70
     1
102
RTVSPropertyOp12
 70
     1
102
RTVSPropertyOp13
 70
     1
102
RTVSPropertyOp14
 70
     1
102
RTVSPropertyOp15
 70
     1
102
RTVSPropertyOp16
 70
     1
102
RTVSPropertyOp17
 70
     1
102
RTVSPropertyOp18
 70
     1
102
RTVSPropertyOp19
 70
     1
102
RTVSPropertyOp20
 70
     1
102
RTVSPropertyOp21
 70
     1
102
RTVSPropertyOp22
 70
     1
102
RTVSPropertyOp23
 70
     1
102
RTVSPropertyOp24
 70
     1
102
RTVSPropertyOp25
 70
     1
102
RTVSPropertyOp26
 70
     1
102
RTVSPropertyOp27
 70
     1
  0
XRECORD
  5
4C8
102
{ACAD_REACTORS
330
4C7
102
}
330
4C7
100
AcDbXrecord
280
     1
102
RTVSPropertyOp0
 70
     1
102
RTVSPropertyOp1
 70
     1
102
RTVSPropertyOp2
 70
     1
102
RTVSPropertyOp3
 70
     1
102
RTVSPropertyOp4
 70
     1
102
RTVSPropertyOp5
 70
     1
102
RTVSPropertyOp6
 70
     1
102
RTVSPropertyOp7
 70
     1
102
RTVSPropertyOp8
 70
     1
102
RTVSPropertyOp9
 70
     1
102
RTVSPropertyOp10
 70
     1
102
RTVSPropertyOp11
 70
     1
102
RTVSPropertyOp12
 70
     1
102
RTVSPropertyOp13
 70
     1
102
RTVSPropertyOp14
 70
     1
102
RTVSPropertyOp15
 70
     1
102
RTVSPropertyOp16
 70
     1
102
RTVSPropertyOp17
 70
     1
102
RTVSPropertyOp18
 70
     1
102
RTVSPropertyOp19
 70
     1
102
RTVSPropertyOp20
 70
     1
102
RTVSPropertyOp21
 70
     1
102
RTVSPropertyOp22
 70
     1
102
RTVSPropertyOp23
 70
     1
102
RTVSPropertyOp24
 70
     1
102
RTVSPropertyOp25
 70
     1
102
RTVSPropertyOp26
 70
     1
102
RTVSPropertyOp27
 70
     1
  0
XRECORD
  5
4CA
102
{ACAD_REACTORS
330
4C9
102
}
330
4C9
100
AcDbXrecord
280
     1
102
RTVSPropertyOp0
 70
     1
102
RTVSPropertyOp1
 70
     1
102
RTVSPropertyOp2
 70
     1
102
RTVSPropertyOp3
 70
     1
102
RTVSPropertyOp4
 70
     1
102
RTVSPropertyOp5
 70
     1
102
RTVSPropertyOp6
 70
     1
102
RTVSPropertyOp7
 70
     1
102
RTVSPropertyOp8
 70
     1
102
RTVSPropertyOp9
 70
     1
102
RTVSPropertyOp10
 70
     1
102
RTVSPropertyOp11
 70
     1
102
RTVSPropertyOp12
 70
     1
102
RTVSPropertyOp13
 70
     1
102
RTVSPropertyOp14
 70
     1
102
RTVSPropertyOp15
 70
     1
102
RTVSPropertyOp16
 70
     1
102
RTVSPropertyOp17
 70
     1
102
RTVSPropertyOp18
 70
     1
102
RTVSPropertyOp19
 70
     1
102
RTVSPropertyOp20
 70
     1
102
RTVSPropertyOp21
 70
     1
102
RTVSPropertyOp22
 70
     1
102
RTVSPropertyOp23
 70
     1
102
RTVSPropertyOp24
 70
     1
102
RTVSPropertyOp25
 70
     1
102
RTVSPropertyOp26
 70
     1
102
RTVSPropertyOp27
 70
     1
  0
XRECORD
  5
4CC
102
{ACAD_REACTORS
330
4CB
102
}
330
4CB
100
AcDbXrecord
280
     1
102
RTVSPropertyOp0
 70
     1
102
RTVSPropertyOp1
 70
     1
102
RTVSPropertyOp2
 70
     1
102
RTVSPropertyOp3
 70
     1
102
RTVSPropertyOp4
 70
     1
102
RTVSPropertyOp5
 70
     1
102
RTVSPropertyOp6
 70
     1
102
RTVSPropertyOp7
 70
     1
102
RTVSPropertyOp8
 70
     1
102
RTVSPropertyOp9
 70
     1
102
RTVSPropertyOp10
 70
     1
102
RTVSPropertyOp11
 70
     1
102
RTVSPropertyOp12
 70
     1
102
RTVSPropertyOp13
 70
     1
102
RTVSPropertyOp14
 70
     1
102
RTVSPropertyOp15
 70
     1
102
RTVSPropertyOp16
 70
     1
102
RTVSPropertyOp17
 70
     1
102
RTVSPropertyOp18
 70
     1
102
RTVSPropertyOp19
 70
     1
102
RTVSPropertyOp20
 70
     1
102
RTVSPropertyOp21
 70
     1
102
RTVSPropertyOp22
 70
     1
102
RTVSPropertyOp23
 70
     1
102
RTVSPropertyOp24
 70
     1
102
RTVSPropertyOp25
 70
     1
102
RTVSPropertyOp26
 70
     1
102
RTVSPropertyOp27
 70
     1
  0
XRECORD
  5
4E0
102
{ACAD_REACTORS
330
4DF
102
}
330
4DF
100
AcDbXrecord
280
     1
102
RTVSPropertyOp0
 70
     1
102
RTVSPropertyOp1
 70
     1
102
RTVSPropertyOp2
 70
     1
102
RTVSPropertyOp3
 70
     1
102
RTVSPropertyOp4
 70
     1
102
RTVSPropertyOp5
 70
     1
102
RTVSPropertyOp6
 70
     1
102
RTVSPropertyOp7
 70
     1
102
RTVSPropertyOp8
 70
     1
102
RTVSPropertyOp9
 70
     1
102
RTVSPropertyOp10
 70
     1
102
RTVSPropertyOp11
 70
     1
102
RTVSPropertyOp12
 70
     1
102
RTVSPropertyOp13
 70
     1
102
RTVSPropertyOp14
 70
     1
102
RTVSPropertyOp15
 70
     1
102
RTVSPropertyOp16
 70
     1
102
RTVSPropertyOp17
 70
     1
102
RTVSPropertyOp18
 70
     1
102
RTVSPropertyOp19
 70
     1
102
RTVSPropertyOp20
 70
     1
102
RTVSPropertyOp21
 70
     1
102
RTVSPropertyOp22
 70
     1
102
RTVSPropertyOp23
 70
     1
102
RTVSPropertyOp24
 70
     1
102
RTVSPropertyOp25
 70
     1
102
RTVSPropertyOp26
 70
     1
102
RTVSPropertyOp27
 70
     1
  0
XRECORD
  5
4D6
102
{ACAD_REACTORS
330
4D5
102
}
330
4D5
100
AcDbXrecord
280
     1
102
RTVSPropertyOp0
 70
     1
102
RTVSPropertyOp1
 70
     1
102
RTVSPropertyOp2
 70
     1
102
RTVSPropertyOp3
 70
     1
102
RTVSPropertyOp4
 70
     1
102
RTVSPropertyOp5
 70
     1
102
RTVSPropertyOp6
 70
     1
102
RTVSPropertyOp7
 70
     1
102
RTVSPropertyOp8
 70
     1
102
RTVSPropertyOp9
 70
     1
102
RTVSPropertyOp10
 70
     1
102
RTVSPropertyOp11
 70
     1
102
RTVSPropertyOp12
 70
     1
102
RTVSPropertyOp13
 70
     1
102
RTVSPropertyOp14
 70
     1
102
RTVSPropertyOp15
 70
     1
102
RTVSPropertyOp16
 70
     1
102
RTVSPropertyOp17
 70
     1
102
RTVSPropertyOp18
 70
     1
102
RTVSPropertyOp19
 70
     1
102
RTVSPropertyOp20
 70
     1
102
RTVSPropertyOp21
 70
     1
102
RTVSPropertyOp22
 70
     1
102
RTVSPropertyOp23
 70
     1
102
RTVSPropertyOp24
 70
     1
102
RTVSPropertyOp25
 70
     1
102
RTVSPropertyOp26
 70
     1
102
RTVSPropertyOp27
 70
     1
  0
XRECORD
  5
4DE
102
{ACAD_REACTORS
330
4DD
102
}
330
4DD
100
AcDbXrecord
280
     1
102
RTVSPropertyOp0
 70
     1
102
RTVSPropertyOp1
 70
     1
102
RTVSPropertyOp2
 70
     1
102
RTVSPropertyOp3
 70
     1
102
RTVSPropertyOp4
 70
     1
102
RTVSPropertyOp5
 70
     1
102
RTVSPropertyOp6
 70
     1
102
RTVSPropertyOp7
 70
     1
102
RTVSPropertyOp8
 70
     1
102
RTVSPropertyOp9
 70
     1
102
RTVSPropertyOp10
 70
     1
102
RTVSPropertyOp11
 70
     1
102
RTVSPropertyOp12
 70
     1
102
RTVSPropertyOp13
 70
     1
102
RTVSPropertyOp14
 70
     1
102
RTVSPropertyOp15
 70
     1
102
RTVSPropertyOp16
 70
     1
102
RTVSPropertyOp17
 70
     1
102
RTVSPropertyOp18
 70
     1
102
RTVSPropertyOp19
 70
     1
102
RTVSPropertyOp20
 70
     1
102
RTVSPropertyOp21
 70
     1
102
RTVSPropertyOp22
 70
     1
102
RTVSPropertyOp23
 70
     1
102
RTVSPropertyOp24
 70
     1
102
RTVSPropertyOp25
 70
     1
102
RTVSPropertyOp26
 70
     1
102
RTVSPropertyOp27
 70
     1
  0
ENDSEC
  0
EOF
