  0
SECTION
  2
HEADER
  9
$ACADVER
  1
AC1015
  9
$ACADMAINTVER
 70
     6
  9
$DWGCODEPAGE
  3
ANSI_932
  9
$INSBASE
 10
0.0
 20
0.0
 30
0.0
  9
$EXTMIN
 10
-222.42534167916
 20
-110.770063078461
 30
0.0
  9
$EXTMAX
 10
149.041641758591
 20
375.076292658229
 30
0.0
  9
$LIMMIN
 10
0.0
 20
0.0
  9
$LIMMAX
 10
12.0
 20
9.0
  9
$ORTHOMODE
 70
     0
  9
$REGENMODE
 70
     1
  9
$FILLMODE
 70
     1
  9
$QTEXTMODE
 70
     0
  9
$MIRRTEXT
 70
     1
  9
$LTSCALE
 40
1.0
  9
$ATTMODE
 70
     1
  9
$TEXTSIZE
 40
0.2
  9
$TRACEWID
 40
0.05
  9
$TEXTSTYLE
  7
Standard
  9
$CLAYER
  8
0
  9
$CELTYPE
  6
ByLayer
  9
$CECOLOR
 62
   256
  9
$CELTSCALE
 40
1.0
  9
$DISPSILH
 70
     0
  9
$DIMSCALE
 40
1.0
  9
$DIMASZ
 40
0.18
  9
$DIMEXO
 40
0.0625
  9
$DIMDLI
 40
0.38
  9
$DIMRND
 40
0.0
  9
$DIMDLE
 40
0.0
  9
$DIMEXE
 40
0.18
  9
$DIMTP
 40
0.0
  9
$DIMTM
 40
0.0
  9
$DIMTXT
 40
0.18
  9
$DIMCEN
 40
0.09
  9
$DIMTSZ
 40
0.0
  9
$DIMTOL
 70
     0
  9
$DIMLIM
 70
     0
  9
$DIMTIH
 70
     1
  9
$DIMTOH
 70
     1
  9
$DIMSE1
 70
     0
  9
$DIMSE2
 70
     0
  9
$DIMTAD
 70
     0
  9
$DIMZIN
 70
     0
  9
$DIMBLK
  1

  9
$DIMASO
 70
     1
  9
$DIMSHO
 70
     1
  9
$DIMPOST
  1

  9
$DIMAPOST
  1

  9
$DIMALT
 70
     0
  9
$DIMALTD
 70
     2
  9
$DIMALTF
 40
25.4
  9
$DIMLFAC
 40
1.0
  9
$DIMTOFL
 70
     0
  9
$DIMTVP
 40
0.0
  9
$DIMTIX
 70
     0
  9
$DIMSOXD
 70
     0
  9
$DIMSAH
 70
     0
  9
$DIMBLK1
  1

  9
$DIMBLK2
  1

  9
$DIMSTYLE
  2
Standard
  9
$DIMCLRD
 70
     0
  9
$DIMCLRE
 70
     0
  9
$DIMCLRT
 70
     0
  9
$DIMTFAC
 40
1.0
  9
$DIMGAP
 40
0.09
  9
$DIMJUST
 70
     0
  9
$DIMSD1
 70
     0
  9
$DIMSD2
 70
     0
  9
$DIMTOLJ
 70
     1
  9
$DIMTZIN
 70
     0
  9
$DIMALTZ
 70
     0
  9
$DIMALTTZ
 70
     0
  9
$DIMUPT
 70
     0
  9
$DIMDEC
 70
     4
  9
$DIMTDEC
 70
     4
  9
$DIMALTU
 70
     2
  9
$DIMALTTD
 70
     2
  9
$DIMTXSTY
  7
Standard
  9
$DIMAUNIT
 70
     0
  9
$DIMADEC
 70
     0
  9
$DIMALTRND
 40
0.0
  9
$DIMAZIN
 70
     0
  9
$DIMDSEP
 70
    46
  9
$DIMATFIT
 70
     3
  9
$DIMFRAC
 70
     0
  9
$DIMLDRBLK
  1

  9
$DIMLUNIT
 70
     2
  9
$DIMLWD
 70
    -2
  9
$DIMLWE
 70
    -2
  9
$DIMTMOVE
 70
     0
  9
$LUNITS
 70
     2
  9
$LUPREC
 70
     4
  9
$SKETCHINC
 40
0.1
  9
$FILLETRAD
 40
0.5
  9
$AUNITS
 70
     0
  9
$AUPREC
 70
     0
  9
$MENU
  1
.
  9
$ELEVATION
 40
0.0
  9
$PELEVATION
 40
0.0
  9
$THICKNESS
 40
0.0
  9
$LIMCHECK
 70
     0
  9
$CHAMFERA
 40
0.5
  9
$CHAMFERB
 40
0.5
  9
$CHAMFERC
 40
1.0
  9
$CHAMFERD
 40
0.0
  9
$SKPOLY
 70
     0
  9
$TDCREATE
 40
2457624.679082974
  9
$TDUCREATE
 40
2457624.304082974
  9
$TDUPDATE
 40
2457624.679082986
  9
$TDUUPDATE
 40
2457624.304082986
  9
$TDINDWG
 40
0.0000000116
  9
$TDUSRTIMER
 40
0.0000000116
  9
$USRTIMER
 70
     1
  9
$ANGBASE
 50
0.0
  9
$ANGDIR
 70
     0
  9
$PDMODE
 70
     0
  9
$PDSIZE
 40
0.0
  9
$PLINEWID
 40
0.0
  9
$SPLFRAME
 70
     0
  9
$SPLINETYPE
 70
     6
  9
$SPLINESEGS
 70
     8
  9
$HANDSEED
  5
487
  9
$SURFTAB1
 70
     6
  9
$SURFTAB2
 70
     6
  9
$SURFTYPE
 70
     6
  9
$SURFU
 70
     6
  9
$SURFV
 70
     6
  9
$UCSBASE
  2

  9
$UCSNAME
  2

  9
$UCSORG
 10
0.0
 20
0.0
 30
0.0
  9
$UCSXDIR
 10
1.0
 20
0.0
 30
0.0
  9
$UCSYDIR
 10
0.0
 20
1.0
 30
0.0
  9
$UCSORTHOREF
  2

  9
$UCSORTHOVIEW
 70
     0
  9
$UCSORGTOP
 10
0.0
 20
0.0
 30
0.0
  9
$UCSORGBOTTOM
 10
0.0
 20
0.0
 30
0.0
  9
$UCSORGLEFT
 10
0.0
 20
0.0
 30
0.0
  9
$UCSORGRIGHT
 10
0.0
 20
0.0
 30
0.0
  9
$UCSORGFRONT
 10
0.0
 20
0.0
 30
0.0
  9
$UCSORGBACK
 10
0.0
 20
0.0
 30
0.0
  9
$PUCSBASE
  2

  9
$PUCSNAME
  2

  9
$PUCSORG
 10
0.0
 20
0.0
 30
0.0
  9
$PUCSXDIR
 10
1.0
 20
0.0
 30
0.0
  9
$PUCSYDIR
 10
0.0
 20
1.0
 30
0.0
  9
$PUCSORTHOREF
  2

  9
$PUCSORTHOVIEW
 70
     0
  9
$PUCSORGTOP
 10
0.0
 20
0.0
 30
0.0
  9
$PUCSORGBOTTOM
 10
0.0
 20
0.0
 30
0.0
  9
$PUCSORGLEFT
 10
0.0
 20
0.0
 30
0.0
  9
$PUCSORGRIGHT
 10
0.0
 20
0.0
 30
0.0
  9
$PUCSORGFRONT
 10
0.0
 20
0.0
 30
0.0
  9
$PUCSORGBACK
 10
0.0
 20
0.0
 30
0.0
  9
$USERI1
 70
     0
  9
$USERI2
 70
     0
  9
$USERI3
 70
     0
  9
$USERI4
 70
     0
  9
$USERI5
 70
     0
  9
$USERR1
 40
18.0
  9
$USERR2
 40
0.0
  9
$USERR3
 40
0.0
  9
$USERR4
 40
0.0
  9
$USERR5
 40
0.0
  9
$WORLDVIEW
 70
     1
  9
$SHADEDGE
 70
     3
  9
$SHADEDIF
 70
    70
  9
$TILEMODE
 70
     1
  9
$MAXACTVP
 70
    64
  9
$PINSBASE
 10
0.0
 20
0.0
 30
0.0
  9
$PLIMCHECK
 70
     0
  9
$PEXTMIN
 10
1.00000000000000E+20
 20
1.00000000000000E+20
 30
1.00000000000000E+20
  9
$PEXTMAX
 10
-1.00000000000000E+20
 20
-1.00000000000000E+20
 30
-1.00000000000000E+20
  9
$PLIMMIN
 10
0.0
 20
0.0
  9
$PLIMMAX
 10
12.0
 20
9.0
  9
$UNITMODE
 70
     0
  9
$VISRETAIN
 70
     1
  9
$PLINEGEN
 70
     0
  9
$PSLTSCALE
 70
     1
  9
$TREEDEPTH
 70
  3020
  9
$CMLSTYLE
  2
Standard
  9
$CMLJUST
 70
     0
  9
$CMLSCALE
 40
1.0
  9
$PROXYGRAPHICS
 70
     1
  9
$MEASUREMENT
 70
     1
  9
$CELWEIGHT
370
    -1
  9
$ENDCAPS
280
     0
  9
$JOINSTYLE
280
     0
  9
$LWDISPLAY
290
     0
  9
$INSUNITS
 70
     1
  9
$HYPERLINKBASE
  1

  9
$STYLESHEET
  1

  9
$XEDIT
290
     1
  9
$CEPSNTYPE
380
     0
  9
$PSTYLEMODE
290
     1
  9
$FINGERPRINTGUID
  2
{82F4F384-F9B2-4D46-90EC-28BA4E22DC72}
  9
$VERSIONGUID
  2
{FAEB1C32-E019-11D5-929B-00C0DF256EC4}
  9
$EXTNAMES
290
     1
  9
$PSVPSCALE
 40
0.0
  9
$OLESTARTUP
290
     0
  0
ENDSEC
  0
SECTION
  2
CLASSES
  0
CLASS
  1
ACDBDICTIONARYWDFLT
  2
AcDbDictionaryWithDefault
  3
ObjectDBX Classes
 90
        0
280
     0
281
     0
  0
CLASS
  1
VISUALSTYLE
  2
AcDbVisualStyle
  3
ObjectDBX Classes
 90
     4095
280
     0
281
     0
  0
CLASS
  1
MATERIAL
  2
AcDbMaterial
  3
ObjectDBX Classes
 90
     1153
280
     0
281
     0
  0
CLASS
  1

  2
exOdDbCircle
  3

 90
        0
280
     0
281
     1
  0
CLASS
  1

  2
exOdDbSpline
  3

 90
        0
280
     0
281
     1
  0
CLASS
  1

  2
exOdDbPolyline
  3

 90
        0
280
     0
281
     1
  0
CLASS
  1
DICTIONARYVAR
  2
AcDbDictionaryVar
  3
ObjectDBX Classes
 90
        0
280
     0
281
     0
  0
CLASS
  1
ACDBPLACEHOLDER
  2
AcDbPlaceHolder
  3
ObjectDBX Classes
 90
        0
280
     0
281
     0
  0
CLASS
  1
LAYOUT
  2
AcDbLayout
  3
ObjectDBX Classes
 90
        0
280
     0
281
     0
  0
ENDSEC
  0
SECTION
  2
TABLES
  0
TABLE
  2
VPORT
  5
8
330
0
100
AcDbSymbolTable
 70
     1
  0
VPORT
  5
29
330
8
100
AcDbSymbolTableRecord
100
AcDbViewportTableRecord
  2
*Active
 70
     0
 10
0.0
 20
0.0
 11
1.0
 21
1.0
 12
-36.6918499602845
 22
132.153114789884
 13
0.0
 23
0.0
 14
0.5
 24
0.5
 15
0.5
 25
0.5
 16
0.0
 26
0.0
 36
1.0
 17
0.0
 27
0.0
 37
0.0
 40
534.4309913103591
 41
1.60267857142857
 42
50.0
 43
0.0
 44
0.0
 50
0.0
 51
0.0
 71
     0
 72
   100
 73
     1
 74
     3
 75
     0
 76
     0
 77
     0
 78
     0
281
     0
 65
     1
110
0.0
120
0.0
130
0.0
111
1.0
121
0.0
131
0.0
112
0.0
122
1.0
132
0.0
 79
     0
146
0.0
  0
ENDTAB
  0
TABLE
  2
LTYPE
  5
5
330
0
100
AcDbSymbolTable
 70
     9
  0
LTYPE
  5
14
330
5
100
AcDbSymbolTableRecord
100
AcDbLinetypeTableRecord
  2
ByBlock
 70
     0
  3

 72
    65
 73
     0
 40
0.0
  0
LTYPE
  5
15
330
5
100
AcDbSymbolTableRecord
100
AcDbLinetypeTableRecord
  2
ByLayer
 70
     0
  3

 72
    65
 73
     0
 40
0.0
  0
LTYPE
  5
16
330
5
100
AcDbSymbolTableRecord
100
AcDbLinetypeTableRecord
  2
Continuous
 70
     0
  3
Solid line
 72
    65
 73
     0
 40
0.0
  0
LTYPE
  5
3F
330
5
100
AcDbSymbolTableRecord
100
AcDbLinetypeTableRecord
  2
DASHED
 70
     0
  3
Dashed
 72
    65
 73
     2
 40
15.0
 49
7.0
 74
     0
 49
-8.0
 74
     0
  0
LTYPE
  5
40
330
5
100
AcDbSymbolTableRecord
100
AcDbLinetypeTableRecord
  2
DOTTED
 70
     0
  3
Dotted
 72
    65
 73
     2
 40
1.0
 49
0.0
 74
     0
 49
-1.0
 74
     0
  0
LTYPE
  5
41
330
5
100
AcDbSymbolTableRecord
100
AcDbLinetypeTableRecord
  2
DOT_CENTER
 70
     0
  3
Dot_Center
 72
    65
 73
     4
 40
14.0
 49
12.0
 74
     0
 49
-1.0
 74
     0
 49
0.0
 74
     0
 49
-1.0
 74
     0
  0
LTYPE
  5
42
330
5
100
AcDbSymbolTableRecord
100
AcDbLinetypeTableRecord
  2
LONG_DASHED
 70
     0
  3
Long_Dashed
 72
    65
 73
     2
 40
15.0
 49
10.0
 74
     0
 49
-5.0
 74
     0
  0
LTYPE
  5
43
330
5
100
AcDbSymbolTableRecord
100
AcDbLinetypeTableRecord
  2
DASH_CENTER
 70
     0
  3
Dash_Center
 72
    65
 73
     4
 40
14.0
 49
11.0
 74
     0
 49
-1.0
 74
     0
 49
1.0
 74
     0
 49
-1.0
 74
     0
  0
LTYPE
  5
44
330
5
100
AcDbSymbolTableRecord
100
AcDbLinetypeTableRecord
  2
PHANTOM
 70
     0
  3
Phantom
 72
    65
 73
     6
 40
13.0
 49
10.0
 74
     0
 49
-1.0
 74
     0
 49
0.0
 74
     0
 49
-1.0
 74
     0
 49
0.0
 74
     0
 49
-1.0
 74
     0
  0
LTYPE
  5
45
330
5
100
AcDbSymbolTableRecord
100
AcDbLinetypeTableRecord
  2
CENTER_DASH_DASH
 70
     0
  3
Center_Dash_Dash
 72
    65
 73
     6
 40
14.0
 49
9.0
 74
     0
 49
-1.0
 74
     0
 49
1.0
 74
     0
 49
-1.0
 74
     0
 49
1.0
 74
     0
 49
-1.0
 74
     0
  0
LTYPE
  5
46
330
5
100
AcDbSymbolTableRecord
100
AcDbLinetypeTableRecord
  2
CENTER
 70
     0
  3
CENTER
 72
    65
 73
     4
 40
6.0
 49
3.0
 74
     0
 49
-1.0
 74
     0
 49
1.0
 74
     0
 49
-1.0
 74
     0
  0
ENDTAB
  0
TABLE
  2
LAYER
  5
2
330
0
100
AcDbSymbolTable
 70
     5
  0
LAYER
  5
10
330
2
100
AcDbSymbolTableRecord
100
AcDbLayerTableRecord
  2
0
 70
     0
 62
     7
  6
Continuous
370
    -3
390
F
  0
LAYER
  5
47
330
2
100
AcDbSymbolTableRecord
100
AcDbLayerTableRecord
  2
1
 70
     0
 62
     7
  6
Continuous
370
    -3
390
F
  0
LAYER
  5
48
330
2
100
AcDbSymbolTableRecord
100
AcDbLayerTableRecord
  2
100
 70
     0
 62
     7
  6
Continuous
370
    -3
390
F
  0
LAYER
  5
49
330
2
100
AcDbSymbolTableRecord
100
AcDbLayerTableRecord
  2
2
 70
     0
 62
     7
  6
Continuous
370
    -3
390
F
  0
LAYER
  5
4A
330
2
100
AcDbSymbolTableRecord
100
AcDbLayerTableRecord
  2
3
 70
     0
 62
     7
  6
Continuous
370
    -3
390
F
  0
ENDTAB
  0
TABLE
  2
STYLE
  5
3
330
0
100
AcDbSymbolTable
 70
     1
  0
STYLE
  5
11
330
3
100
AcDbSymbolTableRecord
100
AcDbTextStyleTableRecord
  2
Standard
 70
     0
 40
0.0
 41
1.0
 50
0.0
 71
     0
 42
0.2
  3
txt
  4

  0
ENDTAB
  0
TABLE
  2
VIEW
  5
6
330
0
100
AcDbSymbolTable
 70
     0
  0
ENDTAB
  0
TABLE
  2
UCS
  5
7
330
0
100
AcDbSymbolTable
 70
     0
  0
ENDTAB
  0
TABLE
  2
APPID
  5
9
330
0
100
AcDbSymbolTable
 70
     1
  0
APPID
  5
12
330
9
100
AcDbSymbolTableRecord
100
AcDbRegAppTableRecord
  2
ACAD
 70
     0
  0
ENDTAB
  0
TABLE
  2
DIMSTYLE
  5
A
330
0
100
AcDbSymbolTable
 70
     1
100
AcDbDimStyleTable
  0
DIMSTYLE
105
27
330
A
100
AcDbSymbolTableRecord
100
AcDbDimStyleTableRecord
  2
Standard
 70
     0
340
11
  0
ENDTAB
  0
TABLE
  2
BLOCK_RECORD
  5
1
330
0
100
AcDbSymbolTable
 70
     1
  0
BLOCK_RECORD
  5
1F
330
1
100
AcDbSymbolTableRecord
100
AcDbBlockTableRecord
  2
*Model_Space
340
22
  0
BLOCK_RECORD
  5
1B
330
1
100
AcDbSymbolTableRecord
100
AcDbBlockTableRecord
  2
*Paper_Space
340
1E
  0
BLOCK_RECORD
  5
23
330
1
100
AcDbSymbolTableRecord
100
AcDbBlockTableRecord
  2
*Paper_Space0
340
26
  0
ENDTAB
  0
ENDSEC
  0
SECTION
  2
BLOCKS
  0
BLOCK
  5
20
330
1F
100
AcDbEntity
  8
0
100
AcDbBlockBegin
  2
*Model_Space
 70
     0
 10
0.0
 20
0.0
 30
0.0
  3
*Model_Space
  1

  0
ENDBLK
  5
21
330
1F
100
AcDbEntity
  8
0
100
AcDbBlockEnd
  0
BLOCK
  5
1C
330
1B
100
AcDbEntity
 67
     1
  8
0
100
AcDbBlockBegin
  2
*Paper_Space
 70
     0
 10
0.0
 20
0.0
 30
0.0
  3
*Paper_Space
  1

  0
ENDBLK
  5
1D
330
1B
100
AcDbEntity
 67
     1
  8
0
100
AcDbBlockEnd
  0
BLOCK
  5
24
330
23
100
AcDbEntity
  8
0
100
AcDbBlockBegin
  2
*Paper_Space0
 70
     0
 10
0.0
 20
0.0
 30
0.0
  3
*Paper_Space0
  1

  0
ENDBLK
  5
25
330
23
100
AcDbEntity
  8
0
100
AcDbBlockEnd
  0
ENDSEC
  0
SECTION
  2
ENTITIES
  0
LINE
  5
4B
330
1F
100
AcDbEntity
  8
1
  6
Continuous
 62
     4
100
AcDbLine
 10
-95.3417214120533
 20
106.175161464806
 30
0.0
 11
-94.3417214120533
 21
105.550161464806
 31
0.0
  0
LINE
  5
4C
330
1F
100
AcDbEntity
  8
1
  6
Continuous
 62
     4
100
AcDbLine
 10
-93.9667214120533
 20
106.487661464806
 30
0.0
 11
-94.7792214120533
 21
107.112661464806
 31
0.0
  0
LINE
  5
4D
330
1F
100
AcDbEntity
  8
1
  6
Continuous
 62
     4
100
AcDbLine
 10
-93.2792214120533
 20
107.237661464806
 30
0.0
 11
-92.8417214120533
 21
106.800161464806
 31
0.0
  0
LINE
  5
4E
330
1F
100
AcDbEntity
  8
1
  6
Continuous
 62
     4
100
AcDbLine
 10
-92.5292214120533
 20
107.112661464806
 30
0.0
 11
-92.9667214120533
 21
107.550161464806
 31
0.0
  0
LINE
  5
4F
330
1F
100
AcDbEntity
  8
1
  6
Continuous
 62
     4
100
AcDbLine
 10
-92.8417214120533
 20
105.237661464806
 30
0.0
 11
-92.1542214120533
 21
106.175161464806
 31
0.0
  0
LINE
  5
50
330
1F
100
AcDbEntity
  8
1
  6
Continuous
 62
     4
100
AcDbLine
 10
-93.9667214120533
 20
104.300161464806
 30
0.0
 11
-92.8417214120533
 21
105.237661464806
 31
0.0
  0
LINE
  5
51
330
1F
100
AcDbEntity
  8
1
  6
Continuous
 62
     4
100
AcDbLine
 10
-95.0292214120533
 20
103.675161464806
 30
0.0
 11
-93.9667214120533
 21
104.300161464806
 31
0.0
  0
LINE
  5
52
330
1F
100
AcDbEntity
  8
1
  6
Continuous
 62
     4
100
AcDbLine
 10
-97.7167214120533
 20
105.050161464806
 30
0.0
 11
-97.2792214120533
 21
104.425161464806
 31
0.0
  0
LINE
  5
53
330
1F
100
AcDbEntity
  8
1
  6
Continuous
 62
     4
100
AcDbLine
 10
-98.2792214120533
 20
105.550161464806
 30
0.0
 11
-97.7167214120533
 21
105.050161464806
 31
0.0
  0
LINE
  5
54
330
1F
100
AcDbEntity
  8
1
  6
Continuous
 62
     4
100
AcDbLine
 10
-98.6542214120533
 20
107.550161464806
 30
0.0
 11
-98.4042214120533
 21
107.237661464806
 31
0.0
  0
LINE
  5
55
330
1F
100
AcDbEntity
  8
1
  6
Continuous
 62
     4
100
AcDbLine
 10
-99.2167214120533
 20
107.862661464806
 30
0.0
 11
-98.6542214120533
 21
107.550161464806
 31
0.0
  0
LINE
  5
56
330
1F
100
AcDbEntity
  8
1
  6
Continuous
 62
     4
100
AcDbLine
 10
-97.9667214120533
 20
106.612661464806
 30
0.0
 11
-99.9042214120533
 21
106.612661464806
 31
0.0
  0
LINE
  5
57
330
1F
100
AcDbEntity
  8
1
  6
Continuous
 62
     4
100
AcDbLine
 10
-98.9667214120533
 20
105.550161464806
 30
0.0
 11
-97.9667214120533
 21
106.612661464806
 31
0.0
  0
LINE
  5
58
330
1F
100
AcDbEntity
  8
1
  6
Continuous
 62
     4
100
AcDbLine
 10
-100.3417214120533
 20
104.612661464806
 30
0.0
 11
-98.9667214120533
 21
105.550161464806
 31
0.0
  0
LINE
  5
59
330
1F
100
AcDbEntity
  8
1
  6
Continuous
 62
     4
100
AcDbLine
 10
-98.7792214120533
 20
103.675161464806
 30
0.0
 11
-98.7792214120533
 21
105.675161464806
 31
0.0
  0
LINE
  5
5A
330
1F
100
AcDbEntity
  8
1
  6
Continuous
 62
     4
100
AcDbLine
 10
-105.5292214120533
 20
103.175161464806
 30
0.0
 11
-102.5292214120533
 21
103.175161464806
 31
0.0
  0
LINE
  5
5B
330
1F
100
AcDbEntity
  8
1
  6
Continuous
 62
     4
100
AcDbLine
 10
-102.7792214120533
 20
106.425161464806
 30
0.0
 11
-105.5292214120533
 21
103.175161464806
 31
0.0
  0
LINE
  5
5C
330
1F
100
AcDbEntity
  8
1
  6
Continuous
 62
     4
100
AcDbLine
 10
-102.5292214120533
 20
106.925161464806
 30
0.0
 11
-102.7792214120533
 21
106.425161464806
 31
0.0
  0
LINE
  5
5D
330
1F
100
AcDbEntity
  8
1
  6
Continuous
 62
     4
100
AcDbLine
 10
-102.5292214120533
 20
107.425161464806
 30
0.0
 11
-102.5292214120533
 21
106.925161464806
 31
0.0
  0
LINE
  5
5E
330
1F
100
AcDbEntity
  8
1
  6
Continuous
 62
     4
100
AcDbLine
 10
-102.7792214120533
 20
107.800161464806
 30
0.0
 11
-102.5292214120533
 21
107.425161464806
 31
0.0
  0
LINE
  5
5F
330
1F
100
AcDbEntity
  8
1
  6
Continuous
 62
     4
100
AcDbLine
 10
-103.1542214120533
 20
108.050161464806
 30
0.0
 11
-102.7792214120533
 21
107.800161464806
 31
0.0
  0
LINE
  5
60
330
1F
100
AcDbEntity
  8
1
  6
Continuous
 62
     4
100
AcDbLine
 10
-103.6542214120533
 20
108.175161464806
 30
0.0
 11
-103.1542214120533
 21
108.050161464806
 31
0.0
  0
LINE
  5
61
330
1F
100
AcDbEntity
  8
1
  6
Continuous
 62
     4
100
AcDbLine
 10
-104.4042214120533
 20
108.175161464806
 30
0.0
 11
-103.6542214120533
 21
108.175161464806
 31
0.0
  0
LINE
  5
62
330
1F
100
AcDbEntity
  8
1
  6
Continuous
 62
     4
100
AcDbLine
 10
-104.9042214120533
 20
108.050161464806
 30
0.0
 11
-104.4042214120533
 21
108.175161464806
 31
0.0
  0
LINE
  5
63
330
1F
100
AcDbEntity
  8
1
  6
Continuous
 62
     4
100
AcDbLine
 10
-105.2792214120533
 20
107.800161464806
 30
0.0
 11
-104.9042214120533
 21
108.050161464806
 31
0.0
  0
LINE
  5
64
330
1F
100
AcDbEntity
  8
1
  6
Continuous
 62
     4
100
AcDbLine
 10
-105.5292214120533
 20
107.425161464806
 30
0.0
 11
-105.2792214120533
 21
107.800161464806
 31
0.0
  0
LINE
  5
65
330
1F
100
AcDbEntity
  8
1
  6
Continuous
 62
     4
100
AcDbLine
 10
-109.0292214120533
 20
103.175161464806
 30
0.0
 11
-107.0292214120533
 21
108.175161464806
 31
0.0
  0
LINE
  5
66
330
1F
100
AcDbEntity
  8
1
  6
Continuous
 62
     4
100
AcDbLine
 10
-110.5292214120533
 20
108.175161464806
 30
0.0
 11
-110.5292214120533
 21
103.175161464806
 31
0.0
  0
LINE
  5
67
330
1F
100
AcDbEntity
  8
1
  6
Continuous
 62
     4
100
AcDbLine
 10
-112.0292214120533
 20
106.675161464806
 30
0.0
 11
-110.5292214120533
 21
108.175161464806
 31
0.0
  0
LINE
  5
68
330
1F
100
AcDbEntity
  8
1
  6
Continuous
 62
     4
100
AcDbLine
 10
-117.0292214120533
 20
103.175161464806
 30
0.0
 11
-117.0292214120533
 21
105.675161464806
 31
0.0
  0
LINE
  5
69
330
1F
100
AcDbEntity
  8
1
  6
Continuous
 62
     4
100
AcDbLine
 10
-115.0292214120533
 20
105.675161464806
 30
0.0
 11
-113.5292214120533
 21
103.175161464806
 31
0.0
  0
LINE
  5
6A
330
1F
100
AcDbEntity
  8
1
  6
Continuous
 62
     4
100
AcDbLine
 10
-114.6542214120533
 20
105.675161464806
 30
0.0
 11
-115.0292214120533
 21
105.675161464806
 31
0.0
  0
LINE
  5
6B
330
1F
100
AcDbEntity
  8
1
  6
Continuous
 62
     4
100
AcDbLine
 10
-114.1542214120533
 20
105.800161464806
 30
0.0
 11
-114.6542214120533
 21
105.675161464806
 31
0.0
  0
LINE
  5
6C
330
1F
100
AcDbEntity
  8
1
  6
Continuous
 62
     4
100
AcDbLine
 10
-113.7792214120533
 20
106.050161464806
 30
0.0
 11
-114.1542214120533
 21
105.800161464806
 31
0.0
  0
LINE
  5
6D
330
1F
100
AcDbEntity
  8
1
  6
Continuous
 62
     4
100
AcDbLine
 10
-113.6542214120533
 20
106.300161464806
 30
0.0
 11
-113.7792214120533
 21
106.050161464806
 31
0.0
  0
LINE
  5
6E
330
1F
100
AcDbEntity
  8
1
  6
Continuous
 62
     4
100
AcDbLine
 10
-113.5292214120533
 20
106.675161464806
 30
0.0
 11
-113.6542214120533
 21
106.300161464806
 31
0.0
  0
LINE
  5
6F
330
1F
100
AcDbEntity
  8
1
  6
Continuous
 62
     4
100
AcDbLine
 10
-113.5292214120533
 20
107.175161464806
 30
0.0
 11
-113.5292214120533
 21
106.675161464806
 31
0.0
  0
LINE
  5
70
330
1F
100
AcDbEntity
  8
1
  6
Continuous
 62
     4
100
AcDbLine
 10
-113.6542214120533
 20
107.550161464806
 30
0.0
 11
-113.5292214120533
 21
107.175161464806
 31
0.0
  0
LINE
  5
71
330
1F
100
AcDbEntity
  8
1
  6
Continuous
 62
     4
100
AcDbLine
 10
-113.7792214120533
 20
107.800161464806
 30
0.0
 11
-113.6542214120533
 21
107.550161464806
 31
0.0
  0
LINE
  5
72
330
1F
100
AcDbEntity
  8
1
  6
Continuous
 62
     4
100
AcDbLine
 10
-114.1542214120533
 20
108.050161464806
 30
0.0
 11
-113.7792214120533
 21
107.800161464806
 31
0.0
  0
LINE
  5
73
330
1F
100
AcDbEntity
  8
1
  6
Continuous
 62
     4
100
AcDbLine
 10
-114.6542214120533
 20
108.175161464806
 30
0.0
 11
-114.1542214120533
 21
108.050161464806
 31
0.0
  0
LINE
  5
74
330
1F
100
AcDbEntity
  8
1
  6
Continuous
 62
     4
100
AcDbLine
 10
-117.0292214120533
 20
108.175161464806
 30
0.0
 11
-114.6542214120533
 21
108.175161464806
 31
0.0
  0
LINE
  5
75
330
1F
100
AcDbEntity
  8
1
  6
Continuous
 62
     4
100
AcDbLine
 10
-117.0292214120533
 20
105.675161464806
 30
0.0
 11
-117.0292214120533
 21
108.175161464806
 31
0.0
  0
LINE
  5
76
330
1F
100
AcDbEntity
  8
1
  6
Continuous
 62
     4
100
AcDbLine
 10
-115.0292214120533
 20
105.675161464806
 30
0.0
 11
-117.0292214120533
 21
105.675161464806
 31
0.0
  0
LINE
  5
77
330
1F
100
AcDbEntity
  8
1
  6
Continuous
 62
     4
100
AcDbLine
 10
49.8225753651108
 20
-97.311244541932
 30
0.0
 11
50.8225753651108
 21
-97.936244541932
 31
0.0
  0
LINE
  5
78
330
1F
100
AcDbEntity
  8
1
  6
Continuous
 62
     4
100
AcDbLine
 10
51.1975753651108
 20
-96.998744541932
 30
0.0
 11
50.3850753651108
 21
-96.373744541932
 31
0.0
  0
LINE
  5
79
330
1F
100
AcDbEntity
  8
1
  6
Continuous
 62
     4
100
AcDbLine
 10
51.8850753651108
 20
-96.248744541932
 30
0.0
 11
52.3225753651108
 21
-96.686244541932
 31
0.0
  0
LINE
  5
7A
330
1F
100
AcDbEntity
  8
1
  6
Continuous
 62
     4
100
AcDbLine
 10
52.6350753651108
 20
-96.373744541932
 30
0.0
 11
52.1975753651108
 21
-95.936244541932
 31
0.0
  0
LINE
  5
7B
330
1F
100
AcDbEntity
  8
1
  6
Continuous
 62
     4
100
AcDbLine
 10
52.3225753651108
 20
-98.248744541932
 30
0.0
 11
53.0100753651108
 21
-97.311244541932
 31
0.0
  0
LINE
  5
7C
330
1F
100
AcDbEntity
  8
1
  6
Continuous
 62
     4
100
AcDbLine
 10
51.1975753651108
 20
-99.186244541932
 30
0.0
 11
52.3225753651108
 21
-98.248744541932
 31
0.0
  0
LINE
  5
7D
330
1F
100
AcDbEntity
  8
1
  6
Continuous
 62
     4
100
AcDbLine
 10
50.1350753651108
 20
-99.811244541932
 30
0.0
 11
51.1975753651108
 21
-99.186244541932
 31
0.0
  0
LINE
  5
7E
330
1F
100
AcDbEntity
  8
1
  6
Continuous
 62
     4
100
AcDbLine
 10
47.4475753651108
 20
-98.436244541932
 30
0.0
 11
47.8850753651108
 21
-99.061244541932
 31
0.0
  0
LINE
  5
7F
330
1F
100
AcDbEntity
  8
1
  6
Continuous
 62
     4
100
AcDbLine
 10
46.8850753651108
 20
-97.936244541932
 30
0.0
 11
47.4475753651108
 21
-98.436244541932
 31
0.0
  0
LINE
  5
80
330
1F
100
AcDbEntity
  8
1
  6
Continuous
 62
     4
100
AcDbLine
 10
46.5100753651108
 20
-95.936244541932
 30
0.0
 11
46.7600753651108
 21
-96.248744541932
 31
0.0
  0
LINE
  5
81
330
1F
100
AcDbEntity
  8
1
  6
Continuous
 62
     4
100
AcDbLine
 10
45.9475753651108
 20
-95.623744541932
 30
0.0
 11
46.5100753651108
 21
-95.936244541932
 31
0.0
  0
LINE
  5
82
330
1F
100
AcDbEntity
  8
1
  6
Continuous
 62
     4
100
AcDbLine
 10
47.1975753651108
 20
-96.873744541932
 30
0.0
 11
45.2600753651108
 21
-96.873744541932
 31
0.0
  0
LINE
  5
83
330
1F
100
AcDbEntity
  8
1
  6
Continuous
 62
     4
100
AcDbLine
 10
46.1975753651108
 20
-97.936244541932
 30
0.0
 11
47.1975753651108
 21
-96.873744541932
 31
0.0
  0
LINE
  5
84
330
1F
100
AcDbEntity
  8
1
  6
Continuous
 62
     4
100
AcDbLine
 10
44.8225753651108
 20
-98.873744541932
 30
0.0
 11
46.1975753651108
 21
-97.936244541932
 31
0.0
  0
LINE
  5
85
330
1F
100
AcDbEntity
  8
1
  6
Continuous
 62
     4
100
AcDbLine
 10
46.3850753651108
 20
-99.811244541932
 30
0.0
 11
46.3850753651108
 21
-97.811244541932
 31
0.0
  0
LINE
  5
86
330
1F
100
AcDbEntity
  8
1
  6
Continuous
 62
     4
100
AcDbLine
 10
39.6350753651108
 20
-100.311244541932
 30
0.0
 11
42.6350753651108
 21
-100.311244541932
 31
0.0
  0
LINE
  5
87
330
1F
100
AcDbEntity
  8
1
  6
Continuous
 62
     4
100
AcDbLine
 10
42.3850753651108
 20
-97.061244541932
 30
0.0
 11
39.6350753651108
 21
-100.311244541932
 31
0.0
  0
LINE
  5
88
330
1F
100
AcDbEntity
  8
1
  6
Continuous
 62
     4
100
AcDbLine
 10
42.6350753651108
 20
-96.561244541932
 30
0.0
 11
42.3850753651108
 21
-97.061244541932
 31
0.0
  0
LINE
  5
89
330
1F
100
AcDbEntity
  8
1
  6
Continuous
 62
     4
100
AcDbLine
 10
42.6350753651108
 20
-96.061244541932
 30
0.0
 11
42.6350753651108
 21
-96.561244541932
 31
0.0
  0
LINE
  5
8A
330
1F
100
AcDbEntity
  8
1
  6
Continuous
 62
     4
100
AcDbLine
 10
42.3850753651108
 20
-95.686244541932
 30
0.0
 11
42.6350753651108
 21
-96.061244541932
 31
0.0
  0
LINE
  5
8B
330
1F
100
AcDbEntity
  8
1
  6
Continuous
 62
     4
100
AcDbLine
 10
42.0100753651108
 20
-95.436244541932
 30
0.0
 11
42.3850753651108
 21
-95.686244541932
 31
0.0
  0
LINE
  5
8C
330
1F
100
AcDbEntity
  8
1
  6
Continuous
 62
     4
100
AcDbLine
 10
41.5100753651108
 20
-95.311244541932
 30
0.0
 11
42.0100753651108
 21
-95.436244541932
 31
0.0
  0
LINE
  5
8D
330
1F
100
AcDbEntity
  8
1
  6
Continuous
 62
     4
100
AcDbLine
 10
40.7600753651108
 20
-95.311244541932
 30
0.0
 11
41.5100753651108
 21
-95.311244541932
 31
0.0
  0
LINE
  5
8E
330
1F
100
AcDbEntity
  8
1
  6
Continuous
 62
     4
100
AcDbLine
 10
40.2600753651108
 20
-95.436244541932
 30
0.0
 11
40.7600753651108
 21
-95.311244541932
 31
0.0
  0
LINE
  5
8F
330
1F
100
AcDbEntity
  8
1
  6
Continuous
 62
     4
100
AcDbLine
 10
39.8850753651108
 20
-95.686244541932
 30
0.0
 11
40.2600753651108
 21
-95.436244541932
 31
0.0
  0
LINE
  5
90
330
1F
100
AcDbEntity
  8
1
  6
Continuous
 62
     4
100
AcDbLine
 10
39.6350753651108
 20
-96.061244541932
 30
0.0
 11
39.8850753651108
 21
-95.686244541932
 31
0.0
  0
LINE
  5
91
330
1F
100
AcDbEntity
  8
1
  6
Continuous
 62
     4
100
AcDbLine
 10
36.1350753651108
 20
-100.311244541932
 30
0.0
 11
38.1350753651108
 21
-95.311244541932
 31
0.0
  0
LINE
  5
92
330
1F
100
AcDbEntity
  8
1
  6
Continuous
 62
     4
100
AcDbLine
 10
34.6350753651108
 20
-95.311244541932
 30
0.0
 11
34.6350753651108
 21
-100.311244541932
 31
0.0
  0
LINE
  5
93
330
1F
100
AcDbEntity
  8
1
  6
Continuous
 62
     4
100
AcDbLine
 10
33.1350753651108
 20
-96.811244541932
 30
0.0
 11
34.6350753651108
 21
-95.311244541932
 31
0.0
  0
LINE
  5
94
330
1F
100
AcDbEntity
  8
1
  6
Continuous
 62
     4
100
AcDbLine
 10
28.1350753651108
 20
-100.311244541932
 30
0.0
 11
28.1350753651108
 21
-97.811244541932
 31
0.0
  0
LINE
  5
95
330
1F
100
AcDbEntity
  8
1
  6
Continuous
 62
     4
100
AcDbLine
 10
30.1350753651108
 20
-97.811244541932
 30
0.0
 11
31.6350753651108
 21
-100.311244541932
 31
0.0
  0
LINE
  5
96
330
1F
100
AcDbEntity
  8
1
  6
Continuous
 62
     4
100
AcDbLine
 10
30.5100753651108
 20
-97.811244541932
 30
0.0
 11
30.1350753651108
 21
-97.811244541932
 31
0.0
  0
LINE
  5
97
330
1F
100
AcDbEntity
  8
1
  6
Continuous
 62
     4
100
AcDbLine
 10
31.0100753651108
 20
-97.686244541932
 30
0.0
 11
30.5100753651108
 21
-97.811244541932
 31
0.0
  0
LINE
  5
98
330
1F
100
AcDbEntity
  8
1
  6
Continuous
 62
     4
100
AcDbLine
 10
31.3850753651108
 20
-97.436244541932
 30
0.0
 11
31.0100753651108
 21
-97.686244541932
 31
0.0
  0
LINE
  5
99
330
1F
100
AcDbEntity
  8
1
  6
Continuous
 62
     4
100
AcDbLine
 10
31.5100753651108
 20
-97.186244541932
 30
0.0
 11
31.3850753651108
 21
-97.436244541932
 31
0.0
  0
LINE
  5
9A
330
1F
100
AcDbEntity
  8
1
  6
Continuous
 62
     4
100
AcDbLine
 10
31.6350753651108
 20
-96.811244541932
 30
0.0
 11
31.5100753651108
 21
-97.186244541932
 31
0.0
  0
LINE
  5
9B
330
1F
100
AcDbEntity
  8
1
  6
Continuous
 62
     4
100
AcDbLine
 10
31.6350753651108
 20
-96.311244541932
 30
0.0
 11
31.6350753651108
 21
-96.811244541932
 31
0.0
  0
LINE
  5
9C
330
1F
100
AcDbEntity
  8
1
  6
Continuous
 62
     4
100
AcDbLine
 10
31.5100753651108
 20
-95.936244541932
 30
0.0
 11
31.6350753651108
 21
-96.311244541932
 31
0.0
  0
LINE
  5
9D
330
1F
100
AcDbEntity
  8
1
  6
Continuous
 62
     4
100
AcDbLine
 10
31.3850753651108
 20
-95.686244541932
 30
0.0
 11
31.5100753651108
 21
-95.936244541932
 31
0.0
  0
LINE
  5
9E
330
1F
100
AcDbEntity
  8
1
  6
Continuous
 62
     4
100
AcDbLine
 10
31.0100753651108
 20
-95.436244541932
 30
0.0
 11
31.3850753651108
 21
-95.686244541932
 31
0.0
  0
LINE
  5
9F
330
1F
100
AcDbEntity
  8
1
  6
Continuous
 62
     4
100
AcDbLine
 10
30.5100753651108
 20
-95.311244541932
 30
0.0
 11
31.0100753651108
 21
-95.436244541932
 31
0.0
  0
LINE
  5
A0
330
1F
100
AcDbEntity
  8
1
  6
Continuous
 62
     4
100
AcDbLine
 10
28.1350753651108
 20
-95.311244541932
 30
0.0
 11
30.5100753651108
 21
-95.311244541932
 31
0.0
  0
LINE
  5
A1
330
1F
100
AcDbEntity
  8
1
  6
Continuous
 62
     4
100
AcDbLine
 10
28.1350753651108
 20
-97.811244541932
 30
0.0
 11
28.1350753651108
 21
-95.311244541932
 31
0.0
  0
LINE
  5
A2
330
1F
100
AcDbEntity
  8
1
  6
Continuous
 62
     4
100
AcDbLine
 10
30.1350753651108
 20
-97.811244541932
 30
0.0
 11
28.1350753651108
 21
-97.811244541932
 31
0.0
  0
LINE
  5
A3
330
1F
100
AcDbEntity
  8
1
  6
Continuous
 62
     4
100
AcDbLine
 10
-101.719132627443
 20
-27.7473140304575
 30
0.0
 11
-100.719132627443
 21
-28.3723140304575
 31
0.0
  0
LINE
  5
A4
330
1F
100
AcDbEntity
  8
1
  6
Continuous
 62
     4
100
AcDbLine
 10
-100.344132627443
 20
-27.4348140304575
 30
0.0
 11
-101.156632627443
 21
-26.8098140304575
 31
0.0
  0
LINE
  5
A5
330
1F
100
AcDbEntity
  8
1
  6
Continuous
 62
     4
100
AcDbLine
 10
-99.656632627443
 20
-26.6848140304575
 30
0.0
 11
-99.219132627443
 21
-27.1223140304575
 31
0.0
  0
LINE
  5
A6
330
1F
100
AcDbEntity
  8
1
  6
Continuous
 62
     4
100
AcDbLine
 10
-98.906632627443
 20
-26.8098140304575
 30
0.0
 11
-99.344132627443
 21
-26.3723140304575
 31
0.0
  0
LINE
  5
A7
330
1F
100
AcDbEntity
  8
1
  6
Continuous
 62
     4
100
AcDbLine
 10
-99.219132627443
 20
-28.6848140304575
 30
0.0
 11
-98.531632627443
 21
-27.7473140304575
 31
0.0
  0
LINE
  5
A8
330
1F
100
AcDbEntity
  8
1
  6
Continuous
 62
     4
100
AcDbLine
 10
-100.344132627443
 20
-29.6223140304575
 30
0.0
 11
-99.219132627443
 21
-28.6848140304575
 31
0.0
  0
LINE
  5
A9
330
1F
100
AcDbEntity
  8
1
  6
Continuous
 62
     4
100
AcDbLine
 10
-101.406632627443
 20
-30.2473140304575
 30
0.0
 11
-100.344132627443
 21
-29.6223140304575
 31
0.0
  0
LINE
  5
AA
330
1F
100
AcDbEntity
  8
1
  6
Continuous
 62
     4
100
AcDbLine
 10
-104.094132627443
 20
-28.8723140304575
 30
0.0
 11
-103.656632627443
 21
-29.4973140304575
 31
0.0
  0
LINE
  5
AB
330
1F
100
AcDbEntity
  8
1
  6
Continuous
 62
     4
100
AcDbLine
 10
-104.656632627443
 20
-28.3723140304575
 30
0.0
 11
-104.094132627443
 21
-28.8723140304575
 31
0.0
  0
LINE
  5
AC
330
1F
100
AcDbEntity
  8
1
  6
Continuous
 62
     4
100
AcDbLine
 10
-105.031632627443
 20
-26.3723140304575
 30
0.0
 11
-104.781632627443
 21
-26.6848140304575
 31
0.0
  0
LINE
  5
AD
330
1F
100
AcDbEntity
  8
1
  6
Continuous
 62
     4
100
AcDbLine
 10
-105.594132627443
 20
-26.0598140304575
 30
0.0
 11
-105.031632627443
 21
-26.3723140304575
 31
0.0
  0
LINE
  5
AE
330
1F
100
AcDbEntity
  8
1
  6
Continuous
 62
     4
100
AcDbLine
 10
-104.344132627443
 20
-27.3098140304575
 30
0.0
 11
-106.281632627443
 21
-27.3098140304575
 31
0.0
  0
LINE
  5
AF
330
1F
100
AcDbEntity
  8
1
  6
Continuous
 62
     4
100
AcDbLine
 10
-105.344132627443
 20
-28.3723140304575
 30
0.0
 11
-104.344132627443
 21
-27.3098140304575
 31
0.0
  0
LINE
  5
B0
330
1F
100
AcDbEntity
  8
1
  6
Continuous
 62
     4
100
AcDbLine
 10
-106.719132627443
 20
-29.3098140304575
 30
0.0
 11
-105.344132627443
 21
-28.3723140304575
 31
0.0
  0
LINE
  5
B1
330
1F
100
AcDbEntity
  8
1
  6
Continuous
 62
     4
100
AcDbLine
 10
-105.156632627443
 20
-30.2473140304575
 30
0.0
 11
-105.156632627443
 21
-28.2473140304575
 31
0.0
  0
LINE
  5
B2
330
1F
100
AcDbEntity
  8
1
  6
Continuous
 62
     4
100
AcDbLine
 10
-109.656632627443
 20
-28.7473140304575
 30
0.0
 11
-109.656632627443
 21
-30.7473140304575
 31
0.0
  0
LINE
  5
B3
330
1F
100
AcDbEntity
  8
1
  6
Continuous
 62
     4
100
AcDbLine
 10
-111.906632627443
 20
-29.7473140304575
 30
0.0
 11
-108.906632627443
 21
-29.7473140304575
 31
0.0
  0
LINE
  5
B4
330
1F
100
AcDbEntity
  8
1
  6
Continuous
 62
     4
100
AcDbLine
 10
-109.656632627443
 20
-25.7473140304575
 30
0.0
 11
-111.906632627443
 21
-29.7473140304575
 31
0.0
  0
LINE
  5
B5
330
1F
100
AcDbEntity
  8
1
  6
Continuous
 62
     4
100
AcDbLine
 10
-115.406632627443
 20
-30.7473140304575
 30
0.0
 11
-113.406632627443
 21
-25.7473140304575
 31
0.0
  0
LINE
  5
B6
330
1F
100
AcDbEntity
  8
1
  6
Continuous
 62
     4
100
AcDbLine
 10
-118.031632627443
 20
-30.7473140304575
 30
0.0
 11
-119.906632627443
 21
-30.7473140304575
 31
0.0
  0
LINE
  5
B7
330
1F
100
AcDbEntity
  8
1
  6
Continuous
 62
     4
100
AcDbLine
 10
-117.656632627443
 20
-30.6223140304575
 30
0.0
 11
-118.031632627443
 21
-30.7473140304575
 31
0.0
  0
LINE
  5
B8
330
1F
100
AcDbEntity
  8
1
  6
Continuous
 62
     4
100
AcDbLine
 10
-117.281632627443
 20
-30.3723140304575
 30
0.0
 11
-117.656632627443
 21
-30.6223140304575
 31
0.0
  0
LINE
  5
B9
330
1F
100
AcDbEntity
  8
1
  6
Continuous
 62
     4
100
AcDbLine
 10
-117.031632627443
 20
-29.9973140304575
 30
0.0
 11
-117.281632627443
 21
-30.3723140304575
 31
0.0
  0
LINE
  5
BA
330
1F
100
AcDbEntity
  8
1
  6
Continuous
 62
     4
100
AcDbLine
 10
-116.906632627443
 20
-29.4973140304575
 30
0.0
 11
-117.031632627443
 21
-29.9973140304575
 31
0.0
  0
LINE
  5
BB
330
1F
100
AcDbEntity
  8
1
  6
Continuous
 62
     4
100
AcDbLine
 10
-116.906632627443
 20
-28.8723140304575
 30
0.0
 11
-116.906632627443
 21
-29.4973140304575
 31
0.0
  0
LINE
  5
BC
330
1F
100
AcDbEntity
  8
1
  6
Continuous
 62
     4
100
AcDbLine
 10
-117.031632627443
 20
-28.3723140304575
 30
0.0
 11
-116.906632627443
 21
-28.8723140304575
 31
0.0
  0
LINE
  5
BD
330
1F
100
AcDbEntity
  8
1
  6
Continuous
 62
     4
100
AcDbLine
 10
-117.156632627443
 20
-28.1223140304575
 30
0.0
 11
-117.031632627443
 21
-28.3723140304575
 31
0.0
  0
LINE
  5
BE
330
1F
100
AcDbEntity
  8
1
  6
Continuous
 62
     4
100
AcDbLine
 10
-117.406632627443
 20
-27.8723140304575
 30
0.0
 11
-117.156632627443
 21
-28.1223140304575
 31
0.0
  0
LINE
  5
BF
330
1F
100
AcDbEntity
  8
1
  6
Continuous
 62
     4
100
AcDbLine
 10
-117.906632627443
 20
-27.7473140304575
 30
0.0
 11
-117.406632627443
 21
-27.8723140304575
 31
0.0
  0
LINE
  5
C0
330
1F
100
AcDbEntity
  8
1
  6
Continuous
 62
     4
100
AcDbLine
 10
-117.531632627443
 20
-27.6223140304575
 30
0.0
 11
-117.906632627443
 21
-27.7473140304575
 31
0.0
  0
LINE
  5
C1
330
1F
100
AcDbEntity
  8
1
  6
Continuous
 62
     4
100
AcDbLine
 10
-117.281632627443
 20
-27.4973140304575
 30
0.0
 11
-117.531632627443
 21
-27.6223140304575
 31
0.0
  0
LINE
  5
C2
330
1F
100
AcDbEntity
  8
1
  6
Continuous
 62
     4
100
AcDbLine
 10
-117.031632627443
 20
-27.2473140304575
 30
0.0
 11
-117.281632627443
 21
-27.4973140304575
 31
0.0
  0
LINE
  5
C3
330
1F
100
AcDbEntity
  8
1
  6
Continuous
 62
     4
100
AcDbLine
 10
-116.906632627443
 20
-26.8723140304575
 30
0.0
 11
-117.031632627443
 21
-27.2473140304575
 31
0.0
  0
LINE
  5
C4
330
1F
100
AcDbEntity
  8
1
  6
Continuous
 62
     4
100
AcDbLine
 10
-116.906632627443
 20
-26.4973140304575
 30
0.0
 11
-116.906632627443
 21
-26.8723140304575
 31
0.0
  0
LINE
  5
C5
330
1F
100
AcDbEntity
  8
1
  6
Continuous
 62
     4
100
AcDbLine
 10
-117.031632627443
 20
-26.1223140304575
 30
0.0
 11
-116.906632627443
 21
-26.4973140304575
 31
0.0
  0
LINE
  5
C6
330
1F
100
AcDbEntity
  8
1
  6
Continuous
 62
     4
100
AcDbLine
 10
-117.406632627443
 20
-25.8723140304575
 30
0.0
 11
-117.031632627443
 21
-26.1223140304575
 31
0.0
  0
LINE
  5
C7
330
1F
100
AcDbEntity
  8
1
  6
Continuous
 62
     4
100
AcDbLine
 10
-118.031632627443
 20
-25.7473140304575
 30
0.0
 11
-117.406632627443
 21
-25.8723140304575
 31
0.0
  0
LINE
  5
C8
330
1F
100
AcDbEntity
  8
1
  6
Continuous
 62
     4
100
AcDbLine
 10
-119.906632627443
 20
-25.7473140304575
 30
0.0
 11
-118.031632627443
 21
-25.7473140304575
 31
0.0
  0
LINE
  5
C9
330
1F
100
AcDbEntity
  8
1
  6
Continuous
 62
     4
100
AcDbLine
 10
-119.156632627443
 20
-27.7473140304575
 30
0.0
 11
-117.906632627443
 21
-27.7473140304575
 31
0.0
  0
LINE
  5
CA
330
1F
100
AcDbEntity
  8
1
  6
Continuous
 62
     4
100
AcDbLine
 10
-124.906632627443
 20
-30.7473140304575
 30
0.0
 11
-124.906632627443
 21
-28.2473140304575
 31
0.0
  0
LINE
  5
CB
330
1F
100
AcDbEntity
  8
1
  6
Continuous
 62
     4
100
AcDbLine
 10
-122.906632627443
 20
-28.2473140304575
 30
0.0
 11
-121.406632627443
 21
-30.7473140304575
 31
0.0
  0
LINE
  5
CC
330
1F
100
AcDbEntity
  8
1
  6
Continuous
 62
     4
100
AcDbLine
 10
-122.531632627443
 20
-28.2473140304575
 30
0.0
 11
-122.906632627443
 21
-28.2473140304575
 31
0.0
  0
LINE
  5
CD
330
1F
100
AcDbEntity
  8
1
  6
Continuous
 62
     4
100
AcDbLine
 10
-122.031632627443
 20
-28.1223140304575
 30
0.0
 11
-122.531632627443
 21
-28.2473140304575
 31
0.0
  0
LINE
  5
CE
330
1F
100
AcDbEntity
  8
1
  6
Continuous
 62
     4
100
AcDbLine
 10
-121.656632627443
 20
-27.8723140304575
 30
0.0
 11
-122.031632627443
 21
-28.1223140304575
 31
0.0
  0
LINE
  5
CF
330
1F
100
AcDbEntity
  8
1
  6
Continuous
 62
     4
100
AcDbLine
 10
-121.531632627443
 20
-27.6223140304575
 30
0.0
 11
-121.656632627443
 21
-27.8723140304575
 31
0.0
  0
LINE
  5
D0
330
1F
100
AcDbEntity
  8
1
  6
Continuous
 62
     4
100
AcDbLine
 10
-121.406632627443
 20
-27.2473140304575
 30
0.0
 11
-121.531632627443
 21
-27.6223140304575
 31
0.0
  0
LINE
  5
D1
330
1F
100
AcDbEntity
  8
1
  6
Continuous
 62
     4
100
AcDbLine
 10
-121.406632627443
 20
-26.7473140304575
 30
0.0
 11
-121.406632627443
 21
-27.2473140304575
 31
0.0
  0
LINE
  5
D2
330
1F
100
AcDbEntity
  8
1
  6
Continuous
 62
     4
100
AcDbLine
 10
-121.531632627443
 20
-26.3723140304575
 30
0.0
 11
-121.406632627443
 21
-26.7473140304575
 31
0.0
  0
LINE
  5
D3
330
1F
100
AcDbEntity
  8
1
  6
Continuous
 62
     4
100
AcDbLine
 10
-121.656632627443
 20
-26.1223140304575
 30
0.0
 11
-121.531632627443
 21
-26.3723140304575
 31
0.0
  0
LINE
  5
D4
330
1F
100
AcDbEntity
  8
1
  6
Continuous
 62
     4
100
AcDbLine
 10
-122.031632627443
 20
-25.8723140304575
 30
0.0
 11
-121.656632627443
 21
-26.1223140304575
 31
0.0
  0
LINE
  5
D5
330
1F
100
AcDbEntity
  8
1
  6
Continuous
 62
     4
100
AcDbLine
 10
-122.531632627443
 20
-25.7473140304575
 30
0.0
 11
-122.031632627443
 21
-25.8723140304575
 31
0.0
  0
LINE
  5
D6
330
1F
100
AcDbEntity
  8
1
  6
Continuous
 62
     4
100
AcDbLine
 10
-124.906632627443
 20
-25.7473140304575
 30
0.0
 11
-122.531632627443
 21
-25.7473140304575
 31
0.0
  0
LINE
  5
D7
330
1F
100
AcDbEntity
  8
1
  6
Continuous
 62
     4
100
AcDbLine
 10
-124.906632627443
 20
-28.2473140304575
 30
0.0
 11
-124.906632627443
 21
-25.7473140304575
 31
0.0
  0
LINE
  5
D8
330
1F
100
AcDbEntity
  8
1
  6
Continuous
 62
     4
100
AcDbLine
 10
-122.906632627443
 20
-28.2473140304575
 30
0.0
 11
-124.906632627443
 21
-28.2473140304575
 31
0.0
  0
LINE
  5
D9
330
1F
100
AcDbEntity
  8
1
  6
Continuous
 62
     4
100
AcDbLine
 10
123.91020382764
 20
-31.4359826603669
 30
0.0
 11
124.91020382764
 21
-32.0609826603669
 31
0.0
  0
LINE
  5
DA
330
1F
100
AcDbEntity
  8
1
  6
Continuous
 62
     4
100
AcDbLine
 10
125.28520382764
 20
-31.1234826603669
 30
0.0
 11
124.47270382764
 21
-30.4984826603669
 31
0.0
  0
LINE
  5
DB
330
1F
100
AcDbEntity
  8
1
  6
Continuous
 62
     4
100
AcDbLine
 10
125.97270382764
 20
-30.3734826603669
 30
0.0
 11
126.41020382764
 21
-30.8109826603669
 31
0.0
  0
LINE
  5
DC
330
1F
100
AcDbEntity
  8
1
  6
Continuous
 62
     4
100
AcDbLine
 10
126.72270382764
 20
-30.4984826603669
 30
0.0
 11
126.28520382764
 21
-30.0609826603669
 31
0.0
  0
LINE
  5
DD
330
1F
100
AcDbEntity
  8
1
  6
Continuous
 62
     4
100
AcDbLine
 10
126.41020382764
 20
-32.3734826603669
 30
0.0
 11
127.09770382764
 21
-31.4359826603669
 31
0.0
  0
LINE
  5
DE
330
1F
100
AcDbEntity
  8
1
  6
Continuous
 62
     4
100
AcDbLine
 10
125.28520382764
 20
-33.3109826603669
 30
0.0
 11
126.41020382764
 21
-32.3734826603669
 31
0.0
  0
LINE
  5
DF
330
1F
100
AcDbEntity
  8
1
  6
Continuous
 62
     4
100
AcDbLine
 10
124.22270382764
 20
-33.9359826603669
 30
0.0
 11
125.28520382764
 21
-33.3109826603669
 31
0.0
  0
LINE
  5
E0
330
1F
100
AcDbEntity
  8
1
  6
Continuous
 62
     4
100
AcDbLine
 10
121.53520382764
 20
-32.5609826603669
 30
0.0
 11
121.97270382764
 21
-33.1859826603669
 31
0.0
  0
LINE
  5
E1
330
1F
100
AcDbEntity
  8
1
  6
Continuous
 62
     4
100
AcDbLine
 10
120.97270382764
 20
-32.0609826603669
 30
0.0
 11
121.53520382764
 21
-32.5609826603669
 31
0.0
  0
LINE
  5
E2
330
1F
100
AcDbEntity
  8
1
  6
Continuous
 62
     4
100
AcDbLine
 10
120.59770382764
 20
-30.0609826603669
 30
0.0
 11
120.84770382764
 21
-30.3734826603669
 31
0.0
  0
LINE
  5
E3
330
1F
100
AcDbEntity
  8
1
  6
Continuous
 62
     4
100
AcDbLine
 10
120.03520382764
 20
-29.7484826603669
 30
0.0
 11
120.59770382764
 21
-30.0609826603669
 31
0.0
  0
LINE
  5
E4
330
1F
100
AcDbEntity
  8
1
  6
Continuous
 62
     4
100
AcDbLine
 10
121.28520382764
 20
-30.9984826603669
 30
0.0
 11
119.34770382764
 21
-30.9984826603669
 31
0.0
  0
LINE
  5
E5
330
1F
100
AcDbEntity
  8
1
  6
Continuous
 62
     4
100
AcDbLine
 10
120.28520382764
 20
-32.0609826603669
 30
0.0
 11
121.28520382764
 21
-30.9984826603669
 31
0.0
  0
LINE
  5
E6
330
1F
100
AcDbEntity
  8
1
  6
Continuous
 62
     4
100
AcDbLine
 10
118.91020382764
 20
-32.9984826603669
 30
0.0
 11
120.28520382764
 21
-32.0609826603669
 31
0.0
  0
LINE
  5
E7
330
1F
100
AcDbEntity
  8
1
  6
Continuous
 62
     4
100
AcDbLine
 10
120.47270382764
 20
-33.9359826603669
 30
0.0
 11
120.47270382764
 21
-31.9359826603669
 31
0.0
  0
LINE
  5
E8
330
1F
100
AcDbEntity
  8
1
  6
Continuous
 62
     4
100
AcDbLine
 10
115.97270382764
 20
-32.4359826603669
 30
0.0
 11
115.97270382764
 21
-34.4359826603669
 31
0.0
  0
LINE
  5
E9
330
1F
100
AcDbEntity
  8
1
  6
Continuous
 62
     4
100
AcDbLine
 10
113.72270382764
 20
-33.4359826603669
 30
0.0
 11
116.72270382764
 21
-33.4359826603669
 31
0.0
  0
LINE
  5
EA
330
1F
100
AcDbEntity
  8
1
  6
Continuous
 62
     4
100
AcDbLine
 10
115.97270382764
 20
-29.4359826603669
 30
0.0
 11
113.72270382764
 21
-33.4359826603669
 31
0.0
  0
LINE
  5
EB
330
1F
100
AcDbEntity
  8
1
  6
Continuous
 62
     4
100
AcDbLine
 10
110.22270382764
 20
-34.4359826603669
 30
0.0
 11
112.22270382764
 21
-29.4359826603669
 31
0.0
  0
LINE
  5
EC
330
1F
100
AcDbEntity
  8
1
  6
Continuous
 62
     4
100
AcDbLine
 10
107.59770382764
 20
-34.4359826603669
 30
0.0
 11
105.72270382764
 21
-34.4359826603669
 31
0.0
  0
LINE
  5
ED
330
1F
100
AcDbEntity
  8
1
  6
Continuous
 62
     4
100
AcDbLine
 10
107.97270382764
 20
-34.3109826603669
 30
0.0
 11
107.59770382764
 21
-34.4359826603669
 31
0.0
  0
LINE
  5
EE
330
1F
100
AcDbEntity
  8
1
  6
Continuous
 62
     4
100
AcDbLine
 10
108.34770382764
 20
-34.0609826603669
 30
0.0
 11
107.97270382764
 21
-34.3109826603669
 31
0.0
  0
LINE
  5
EF
330
1F
100
AcDbEntity
  8
1
  6
Continuous
 62
     4
100
AcDbLine
 10
108.59770382764
 20
-33.6859826603669
 30
0.0
 11
108.34770382764
 21
-34.0609826603669
 31
0.0
  0
LINE
  5
F0
330
1F
100
AcDbEntity
  8
1
  6
Continuous
 62
     4
100
AcDbLine
 10
108.72270382764
 20
-33.1859826603669
 30
0.0
 11
108.59770382764
 21
-33.6859826603669
 31
0.0
  0
LINE
  5
F1
330
1F
100
AcDbEntity
  8
1
  6
Continuous
 62
     4
100
AcDbLine
 10
108.72270382764
 20
-32.5609826603669
 30
0.0
 11
108.72270382764
 21
-33.1859826603669
 31
0.0
  0
LINE
  5
F2
330
1F
100
AcDbEntity
  8
1
  6
Continuous
 62
     4
100
AcDbLine
 10
108.59770382764
 20
-32.0609826603669
 30
0.0
 11
108.72270382764
 21
-32.5609826603669
 31
0.0
  0
LINE
  5
F3
330
1F
100
AcDbEntity
  8
1
  6
Continuous
 62
     4
100
AcDbLine
 10
108.47270382764
 20
-31.8109826603669
 30
0.0
 11
108.59770382764
 21
-32.0609826603669
 31
0.0
  0
LINE
  5
F4
330
1F
100
AcDbEntity
  8
1
  6
Continuous
 62
     4
100
AcDbLine
 10
108.22270382764
 20
-31.5609826603669
 30
0.0
 11
108.47270382764
 21
-31.8109826603669
 31
0.0
  0
LINE
  5
F5
330
1F
100
AcDbEntity
  8
1
  6
Continuous
 62
     4
100
AcDbLine
 10
107.72270382764
 20
-31.4359826603669
 30
0.0
 11
108.22270382764
 21
-31.5609826603669
 31
0.0
  0
LINE
  5
F6
330
1F
100
AcDbEntity
  8
1
  6
Continuous
 62
     4
100
AcDbLine
 10
108.09770382764
 20
-31.3109826603669
 30
0.0
 11
107.72270382764
 21
-31.4359826603669
 31
0.0
  0
LINE
  5
F7
330
1F
100
AcDbEntity
  8
1
  6
Continuous
 62
     4
100
AcDbLine
 10
108.34770382764
 20
-31.1859826603669
 30
0.0
 11
108.09770382764
 21
-31.3109826603669
 31
0.0
  0
LINE
  5
F8
330
1F
100
AcDbEntity
  8
1
  6
Continuous
 62
     4
100
AcDbLine
 10
108.59770382764
 20
-30.9359826603669
 30
0.0
 11
108.34770382764
 21
-31.1859826603669
 31
0.0
  0
LINE
  5
F9
330
1F
100
AcDbEntity
  8
1
  6
Continuous
 62
     4
100
AcDbLine
 10
108.72270382764
 20
-30.5609826603669
 30
0.0
 11
108.59770382764
 21
-30.9359826603669
 31
0.0
  0
LINE
  5
FA
330
1F
100
AcDbEntity
  8
1
  6
Continuous
 62
     4
100
AcDbLine
 10
108.72270382764
 20
-30.1859826603669
 30
0.0
 11
108.72270382764
 21
-30.5609826603669
 31
0.0
  0
LINE
  5
FB
330
1F
100
AcDbEntity
  8
1
  6
Continuous
 62
     4
100
AcDbLine
 10
108.59770382764
 20
-29.8109826603669
 30
0.0
 11
108.72270382764
 21
-30.1859826603669
 31
0.0
  0
LINE
  5
FC
330
1F
100
AcDbEntity
  8
1
  6
Continuous
 62
     4
100
AcDbLine
 10
108.22270382764
 20
-29.5609826603669
 30
0.0
 11
108.59770382764
 21
-29.8109826603669
 31
0.0
  0
LINE
  5
FD
330
1F
100
AcDbEntity
  8
1
  6
Continuous
 62
     4
100
AcDbLine
 10
107.59770382764
 20
-29.4359826603669
 30
0.0
 11
108.22270382764
 21
-29.5609826603669
 31
0.0
  0
LINE
  5
FE
330
1F
100
AcDbEntity
  8
1
  6
Continuous
 62
     4
100
AcDbLine
 10
105.72270382764
 20
-29.4359826603669
 30
0.0
 11
107.59770382764
 21
-29.4359826603669
 31
0.0
  0
LINE
  5
FF
330
1F
100
AcDbEntity
  8
1
  6
Continuous
 62
     4
100
AcDbLine
 10
106.47270382764
 20
-31.4359826603669
 30
0.0
 11
107.72270382764
 21
-31.4359826603669
 31
0.0
  0
LINE
  5
100
330
1F
100
AcDbEntity
  8
1
  6
Continuous
 62
     4
100
AcDbLine
 10
100.72270382764
 20
-34.4359826603669
 30
0.0
 11
100.72270382764
 21
-31.9359826603669
 31
0.0
  0
LINE
  5
101
330
1F
100
AcDbEntity
  8
1
  6
Continuous
 62
     4
100
AcDbLine
 10
102.72270382764
 20
-31.9359826603669
 30
0.0
 11
104.22270382764
 21
-34.4359826603669
 31
0.0
  0
LINE
  5
102
330
1F
100
AcDbEntity
  8
1
  6
Continuous
 62
     4
100
AcDbLine
 10
103.09770382764
 20
-31.9359826603669
 30
0.0
 11
102.72270382764
 21
-31.9359826603669
 31
0.0
  0
LINE
  5
103
330
1F
100
AcDbEntity
  8
1
  6
Continuous
 62
     4
100
AcDbLine
 10
103.59770382764
 20
-31.8109826603669
 30
0.0
 11
103.09770382764
 21
-31.9359826603669
 31
0.0
  0
LINE
  5
104
330
1F
100
AcDbEntity
  8
1
  6
Continuous
 62
     4
100
AcDbLine
 10
103.97270382764
 20
-31.5609826603669
 30
0.0
 11
103.59770382764
 21
-31.8109826603669
 31
0.0
  0
LINE
  5
105
330
1F
100
AcDbEntity
  8
1
  6
Continuous
 62
     4
100
AcDbLine
 10
104.09770382764
 20
-31.3109826603669
 30
0.0
 11
103.97270382764
 21
-31.5609826603669
 31
0.0
  0
LINE
  5
106
330
1F
100
AcDbEntity
  8
1
  6
Continuous
 62
     4
100
AcDbLine
 10
104.22270382764
 20
-30.9359826603669
 30
0.0
 11
104.09770382764
 21
-31.3109826603669
 31
0.0
  0
LINE
  5
107
330
1F
100
AcDbEntity
  8
1
  6
Continuous
 62
     4
100
AcDbLine
 10
104.22270382764
 20
-30.4359826603669
 30
0.0
 11
104.22270382764
 21
-30.9359826603669
 31
0.0
  0
LINE
  5
108
330
1F
100
AcDbEntity
  8
1
  6
Continuous
 62
     4
100
AcDbLine
 10
104.09770382764
 20
-30.0609826603669
 30
0.0
 11
104.22270382764
 21
-30.4359826603669
 31
0.0
  0
LINE
  5
109
330
1F
100
AcDbEntity
  8
1
  6
Continuous
 62
     4
100
AcDbLine
 10
103.97270382764
 20
-29.8109826603669
 30
0.0
 11
104.09770382764
 21
-30.0609826603669
 31
0.0
  0
LINE
  5
10A
330
1F
100
AcDbEntity
  8
1
  6
Continuous
 62
     4
100
AcDbLine
 10
103.59770382764
 20
-29.5609826603669
 30
0.0
 11
103.97270382764
 21
-29.8109826603669
 31
0.0
  0
LINE
  5
10B
330
1F
100
AcDbEntity
  8
1
  6
Continuous
 62
     4
100
AcDbLine
 10
103.09770382764
 20
-29.4359826603669
 30
0.0
 11
103.59770382764
 21
-29.5609826603669
 31
0.0
  0
LINE
  5
10C
330
1F
100
AcDbEntity
  8
1
  6
Continuous
 62
     4
100
AcDbLine
 10
100.72270382764
 20
-29.4359826603669
 30
0.0
 11
103.09770382764
 21
-29.4359826603669
 31
0.0
  0
LINE
  5
10D
330
1F
100
AcDbEntity
  8
1
  6
Continuous
 62
     4
100
AcDbLine
 10
100.72270382764
 20
-31.9359826603669
 30
0.0
 11
100.72270382764
 21
-29.4359826603669
 31
0.0
  0
LINE
  5
10E
330
1F
100
AcDbEntity
  8
1
  6
Continuous
 62
     4
100
AcDbLine
 10
102.72270382764
 20
-31.9359826603669
 30
0.0
 11
100.72270382764
 21
-31.9359826603669
 31
0.0
  0
LINE
  5
10F
330
1F
100
AcDbEntity
  8
1
  6
Continuous
 62
     4
100
AcDbLine
 10
10.9065557652251
 20
-108.270063078461
 30
0.0
 11
10.4065557652251
 21
-108.895063078461
 31
0.0
  0
LINE
  5
110
330
1F
100
AcDbEntity
  8
1
  6
Continuous
 62
     4
100
AcDbLine
 10
10.4065557652251
 20
-107.645063078461
 30
0.0
 11
10.9065557652251
 21
-108.270063078461
 31
0.0
  0
LINE
  5
111
330
1F
100
AcDbEntity
  8
1
  6
Continuous
 62
     4
100
AcDbLine
 10
7.1565557652251
 20
-108.270063078461
 30
0.0
 11
10.9065557652251
 21
-108.270063078461
 31
0.0
  0
LINE
  5
112
330
1F
100
AcDbEntity
  8
1
  6
Continuous
 62
     4
100
AcDbLine
 10
3.0315557652251
 20
-106.832563078461
 30
0.0
 11
5.9065557652251
 21
-106.832563078461
 31
0.0
  0
LINE
  5
113
330
1F
100
AcDbEntity
  8
1
  6
Continuous
 62
     4
100
AcDbLine
 10
3.0315557652251
 20
-106.832563078461
 30
0.0
 11
3.7190557652251
 21
-105.895063078461
 31
0.0
  0
LINE
  5
114
330
1F
100
AcDbEntity
  8
1
  6
Continuous
 62
     4
100
AcDbLine
 10
4.6565557652251
 20
-109.207563078461
 30
0.0
 11
3.5940557652251
 21
-109.207563078461
 31
0.0
  0
LINE
  5
115
330
1F
100
AcDbEntity
  8
1
  6
Continuous
 62
     4
100
AcDbLine
 10
4.6565557652251
 20
-107.957563078461
 30
0.0
 11
4.6565557652251
 21
-109.207563078461
 31
0.0
  0
LINE
  5
116
330
1F
100
AcDbEntity
  8
1
  6
Continuous
 62
     4
100
AcDbLine
 10
3.5940557652251
 20
-107.957563078461
 30
0.0
 11
4.6565557652251
 21
-107.957563078461
 31
0.0
  0
LINE
  5
117
330
1F
100
AcDbEntity
  8
1
  6
Continuous
 62
     4
100
AcDbLine
 10
3.5940557652251
 20
-109.207563078461
 30
0.0
 11
3.5940557652251
 21
-107.957563078461
 31
0.0
  0
LINE
  5
118
330
1F
100
AcDbEntity
  8
1
  6
Continuous
 62
     4
100
AcDbLine
 10
5.9065557652251
 20
-110.582563078461
 30
0.0
 11
5.2190557652251
 21
-110.582563078461
 31
0.0
  0
LINE
  5
119
330
1F
100
AcDbEntity
  8
1
  6
Continuous
 62
     4
100
AcDbLine
 10
5.9065557652251
 20
-106.832563078461
 30
0.0
 11
5.9065557652251
 21
-110.582563078461
 31
0.0
  0
LINE
  5
11A
330
1F
100
AcDbEntity
  8
1
  6
Continuous
 62
     4
100
AcDbLine
 10
2.3440557652251
 20
-106.832563078461
 30
0.0
 11
3.0315557652251
 21
-106.832563078461
 31
0.0
  0
LINE
  5
11B
330
1F
100
AcDbEntity
  8
1
  6
Continuous
 62
     4
100
AcDbLine
 10
2.3440557652251
 20
-110.582563078461
 30
0.0
 11
2.3440557652251
 21
-106.832563078461
 31
0.0
  0
LINE
  5
11C
330
1F
100
AcDbEntity
  8
1
  6
Continuous
 62
     4
100
AcDbLine
 10
-0.3434442347749
 20
-110.770063078461
 30
0.0
 11
-0.8434442347749
 21
-110.457563078461
 31
0.0
  0
LINE
  5
11D
330
1F
100
AcDbEntity
  8
1
  6
Continuous
 62
     4
100
AcDbLine
 10
-0.0309442347749
 20
-110.270063078461
 30
0.0
 11
-0.3434442347749
 21
-110.770063078461
 31
0.0
  0
LINE
  5
11E
330
1F
100
AcDbEntity
  8
1
  6
Continuous
 62
     4
100
AcDbLine
 10
0.2190557652251
 20
-109.520063078461
 30
0.0
 11
-0.0309442347749
 21
-110.270063078461
 31
0.0
  0
LINE
  5
11F
330
1F
100
AcDbEntity
  8
1
  6
Continuous
 62
     4
100
AcDbLine
 10
0.5315557652251
 20
-108.395063078461
 30
0.0
 11
0.2190557652251
 21
-109.520063078461
 31
0.0
  0
LINE
  5
120
330
1F
100
AcDbEntity
  8
1
  6
Continuous
 62
     4
100
AcDbLine
 10
0.5315557652251
 20
-107.957563078461
 30
0.0
 11
0.5315557652251
 21
-108.395063078461
 31
0.0
  0
LINE
  5
121
330
1F
100
AcDbEntity
  8
1
  6
Continuous
 62
     4
100
AcDbLine
 10
-1.2809442347749
 20
-107.957563078461
 30
0.0
 11
0.5315557652251
 21
-107.957563078461
 31
0.0
  0
LINE
  5
122
330
1F
100
AcDbEntity
  8
1
  6
Continuous
 62
     4
100
AcDbLine
 10
-2.9684442347749
 20
-106.707563078461
 30
0.0
 11
1.2190557652251
 21
-106.707563078461
 31
0.0
  0
LINE
  5
123
330
1F
100
AcDbEntity
  8
1
  6
Continuous
 62
     4
100
AcDbLine
 10
-1.1559442347749
 20
-107.145063078461
 30
0.0
 11
-1.0309442347749
 21
-105.895063078461
 31
0.0
  0
LINE
  5
124
330
1F
100
AcDbEntity
  8
1
  6
Continuous
 62
     4
100
AcDbLine
 10
-1.4059442347749
 20
-108.395063078461
 30
0.0
 11
-1.1559442347749
 21
-107.145063078461
 31
0.0
  0
LINE
  5
125
330
1F
100
AcDbEntity
  8
1
  6
Continuous
 62
     4
100
AcDbLine
 10
-1.7184442347749
 20
-109.207563078461
 30
0.0
 11
-1.4059442347749
 21
-108.395063078461
 31
0.0
  0
LINE
  5
126
330
1F
100
AcDbEntity
  8
1
  6
Continuous
 62
     4
100
AcDbLine
 10
-2.0934442347749
 20
-109.957563078461
 30
0.0
 11
-1.7184442347749
 21
-109.207563078461
 31
0.0
  0
LINE
  5
127
330
1F
100
AcDbEntity
  8
1
  6
Continuous
 62
     4
100
AcDbLine
 10
-2.6559442347749
 20
-110.582563078461
 30
0.0
 11
-2.0934442347749
 21
-109.957563078461
 31
0.0
  0
LINE
  5
128
330
1F
100
AcDbEntity
  8
1
  6
Continuous
 62
     4
100
AcDbLine
 10
-4.3434442347749
 20
-109.207563078461
 30
0.0
 11
-3.6559442347749
 21
-109.957563078461
 31
0.0
  0
LINE
  5
129
330
1F
100
AcDbEntity
  8
1
  6
Continuous
 62
     4
100
AcDbLine
 10
-4.9059442347749
 20
-108.270063078461
 30
0.0
 11
-4.3434442347749
 21
-109.207563078461
 31
0.0
  0
LINE
  5
12A
330
1F
100
AcDbEntity
  8
1
  6
Continuous
 62
     4
100
AcDbLine
 10
-5.3434442347749
 20
-107.145063078461
 30
0.0
 11
-4.9059442347749
 21
-108.270063078461
 31
0.0
  0
LINE
  5
12B
330
1F
100
AcDbEntity
  8
1
  6
Continuous
 62
     4
100
AcDbLine
 10
-4.0934442347749
 20
-107.020063078461
 30
0.0
 11
-5.0309442347749
 21
-107.770063078461
 31
0.0
  0
LINE
  5
12C
330
1F
100
AcDbEntity
  8
1
  6
Continuous
 62
     4
100
AcDbLine
 10
-5.7184442347749
 20
-110.770063078461
 30
0.0
 11
-6.1559442347749
 21
-110.582563078461
 31
0.0
  0
LINE
  5
12D
330
1F
100
AcDbEntity
  8
1
  6
Continuous
 62
     4
100
AcDbLine
 10
-5.7184442347749
 20
-105.895063078461
 30
0.0
 11
-5.7184442347749
 21
-110.770063078461
 31
0.0
  0
LINE
  5
12E
330
1F
100
AcDbEntity
  8
1
  6
Continuous
 62
     4
100
AcDbLine
 10
-6.4059442347749
 20
-107.457563078461
 30
0.0
 11
-7.8434442347749
 21
-107.457563078461
 31
0.0
  0
LINE
  5
12F
330
1F
100
AcDbEntity
  8
1
  6
Continuous
 62
     4
100
AcDbLine
 10
-6.7184442347749
 20
-108.395063078461
 30
0.0
 11
-6.4059442347749
 21
-107.457563078461
 31
0.0
  0
LINE
  5
130
330
1F
100
AcDbEntity
  8
1
  6
Continuous
 62
     4
100
AcDbLine
 10
-7.2809442347749
 20
-109.332563078461
 30
0.0
 11
-6.7184442347749
 21
-108.395063078461
 31
0.0
  0
LINE
  5
131
330
1F
100
AcDbEntity
  8
1
  6
Continuous
 62
     4
100
AcDbLine
 10
-7.8434442347749
 20
-109.957563078461
 30
0.0
 11
-7.2809442347749
 21
-109.332563078461
 31
0.0
  0
LINE
  5
132
330
1F
100
AcDbEntity
  8
1
  6
Continuous
 62
     4
100
AcDbLine
 10
-10.5934442347749
 20
-106.520063078461
 30
0.0
 11
-8.9059442347749
 21
-106.520063078461
 31
0.0
  0
LINE
  5
133
330
1F
100
AcDbEntity
  8
1
  6
Continuous
 62
     4
100
AcDbLine
 10
-8.6559442347749
 20
-110.270063078461
 30
0.0
 11
-8.6559442347749
 21
-109.957563078461
 31
0.0
  0
LINE
  5
134
330
1F
100
AcDbEntity
  8
1
  6
Continuous
 62
     4
100
AcDbLine
 10
-8.9059442347749
 20
-110.582563078461
 30
0.0
 11
-8.6559442347749
 21
-110.270063078461
 31
0.0
  0
LINE
  5
135
330
1F
100
AcDbEntity
  8
1
  6
Continuous
 62
     4
100
AcDbLine
 10
-9.4684442347749
 20
-110.582563078461
 30
0.0
 11
-8.9059442347749
 21
-110.582563078461
 31
0.0
  0
LINE
  5
136
330
1F
100
AcDbEntity
  8
1
  6
Continuous
 62
     4
100
AcDbLine
 10
-9.7809442347749
 20
-110.145063078461
 30
0.0
 11
-9.4684442347749
 21
-110.582563078461
 31
0.0
  0
LINE
  5
137
330
1F
100
AcDbEntity
  8
1
  6
Continuous
 62
     4
100
AcDbLine
 10
-9.7809442347749
 20
-108.582563078461
 30
0.0
 11
-9.7809442347749
 21
-110.145063078461
 31
0.0
  0
LINE
  5
138
330
1F
100
AcDbEntity
  8
1
  6
Continuous
 62
     4
100
AcDbLine
 10
-10.5934442347749
 20
-110.582563078461
 30
0.0
 11
-10.5934442347749
 21
-108.582563078461
 31
0.0
  0
LINE
  5
139
330
1F
100
AcDbEntity
  8
1
  6
Continuous
 62
     4
100
AcDbLine
 10
-11.8434442347749
 20
-110.457563078461
 30
0.0
 11
-12.2809442347749
 21
-110.770063078461
 31
0.0
  0
LINE
  5
13A
330
1F
100
AcDbEntity
  8
1
  6
Continuous
 62
     4
100
AcDbLine
 10
-11.5934442347749
 20
-110.145063078461
 30
0.0
 11
-11.8434442347749
 21
-110.457563078461
 31
0.0
  0
LINE
  5
13B
330
1F
100
AcDbEntity
  8
1
  6
Continuous
 62
     4
100
AcDbLine
 10
-11.4059442347749
 20
-109.645063078461
 30
0.0
 11
-11.5934442347749
 21
-110.145063078461
 31
0.0
  0
LINE
  5
13C
330
1F
100
AcDbEntity
  8
1
  6
Continuous
 62
     4
100
AcDbLine
 10
-11.2809442347749
 20
-108.582563078461
 30
0.0
 11
-11.4059442347749
 21
-109.645063078461
 31
0.0
  0
LINE
  5
13D
330
1F
100
AcDbEntity
  8
1
  6
Continuous
 62
     4
100
AcDbLine
 10
-9.9059442347749
 20
-107.020063078461
 30
0.0
 11
-9.3434442347749
 21
-108.082563078461
 31
0.0
  0
LINE
  5
13E
330
1F
100
AcDbEntity
  8
1
  6
Continuous
 62
     4
100
AcDbLine
 10
-11.7184442347749
 20
-107.770063078461
 30
0.0
 11
-9.5934442347749
 21
-107.645063078461
 31
0.0
  0
LINE
  5
13F
330
1F
100
AcDbEntity
  8
1
  6
Continuous
 62
     4
100
AcDbLine
 10
-10.5934442347749
 20
-106.520063078461
 30
0.0
 11
-11.1559442347749
 21
-107.770063078461
 31
0.0
  0
LINE
  5
140
330
1F
100
AcDbEntity
  8
1
  6
Continuous
 62
     4
100
AcDbLine
 10
-10.4684442347749
 20
-105.770063078461
 30
0.0
 11
-10.4684442347749
 21
-106.520063078461
 31
0.0
  0
LINE
  5
141
330
1F
100
AcDbEntity
  8
1
  6
Continuous
 62
     4
100
AcDbLine
 10
-11.9684442347749
 20
-106.520063078461
 30
0.0
 11
-10.5934442347749
 21
-106.520063078461
 31
0.0
  0
LINE
  5
142
330
1F
100
AcDbEntity
  8
1
  6
Continuous
 62
     4
100
AcDbLine
 10
-12.9684442347749
 20
-110.582563078461
 30
0.0
 11
-12.4059442347749
 21
-108.582563078461
 31
0.0
  0
LINE
  5
143
330
1F
100
AcDbEntity
  8
1
  6
Continuous
 62
     4
100
AcDbLine
 10
-13.0934442347749
 20
-107.332563078461
 30
0.0
 11
-12.6559442347749
 21
-107.770063078461
 31
0.0
  0
LINE
  5
144
330
1F
100
AcDbEntity
  8
1
  6
Continuous
 62
     4
100
AcDbLine
 10
-12.6559442347749
 20
-105.895063078461
 30
0.0
 11
-12.4059442347749
 21
-106.395063078461
 31
0.0
  0
LINE
  5
145
330
1F
100
AcDbEntity
  8
1
  6
Continuous
 62
     4
100
AcDbLine
 10
-174.239567299729
 20
290.633862258728
 30
0.0
 11
-174.239567299729
 21
288.133862258728
 31
0.0
  0
LINE
  5
146
330
1F
100
AcDbEntity
  8
1
  6
Continuous
 62
     4
100
AcDbLine
 10
-174.489567299729
 20
292.133862258728
 30
0.0
 11
-174.239567299729
 21
290.633862258728
 31
0.0
  0
LINE
  5
147
330
1F
100
AcDbEntity
  8
1
  6
Continuous
 62
     4
100
AcDbLine
 10
-174.989567299729
 20
293.133862258728
 30
0.0
 11
-174.489567299729
 21
292.133862258728
 31
0.0
  0
LINE
  5
148
330
1F
100
AcDbEntity
  8
1
  6
Continuous
 62
     4
100
AcDbLine
 10
-175.489567299729
 20
293.633862258728
 30
0.0
 11
-174.989567299729
 21
293.133862258728
 31
0.0
  0
LINE
  5
149
330
1F
100
AcDbEntity
  8
1
  6
Continuous
 62
     4
100
AcDbLine
 10
-176.239567299729
 20
294.133862258728
 30
0.0
 11
-175.489567299729
 21
293.633862258728
 31
0.0
  0
LINE
  5
14A
330
1F
100
AcDbEntity
  8
1
  6
Continuous
 62
     4
100
AcDbLine
 10
-176.989567299729
 20
294.383862258728
 30
0.0
 11
-176.239567299729
 21
294.133862258728
 31
0.0
  0
LINE
  5
14B
330
1F
100
AcDbEntity
  8
1
  6
Continuous
 62
     4
100
AcDbLine
 10
-177.489567299729
 20
294.383862258728
 30
0.0
 11
-176.989567299729
 21
294.383862258728
 31
0.0
  0
LINE
  5
14C
330
1F
100
AcDbEntity
  8
1
  6
Continuous
 62
     4
100
AcDbLine
 10
-178.239567299729
 20
294.133862258728
 30
0.0
 11
-177.489567299729
 21
294.383862258728
 31
0.0
  0
LINE
  5
14D
330
1F
100
AcDbEntity
  8
1
  6
Continuous
 62
     4
100
AcDbLine
 10
-178.989567299729
 20
293.633862258728
 30
0.0
 11
-178.239567299729
 21
294.133862258728
 31
0.0
  0
LINE
  5
14E
330
1F
100
AcDbEntity
  8
1
  6
Continuous
 62
     4
100
AcDbLine
 10
-179.489567299729
 20
293.133862258728
 30
0.0
 11
-178.989567299729
 21
293.633862258728
 31
0.0
  0
LINE
  5
14F
330
1F
100
AcDbEntity
  8
1
  6
Continuous
 62
     4
100
AcDbLine
 10
-179.989567299729
 20
292.133862258728
 30
0.0
 11
-179.489567299729
 21
293.133862258728
 31
0.0
  0
LINE
  5
150
330
1F
100
AcDbEntity
  8
1
  6
Continuous
 62
     4
100
AcDbLine
 10
-180.239567299729
 20
290.633862258728
 30
0.0
 11
-179.989567299729
 21
292.133862258728
 31
0.0
  0
LINE
  5
151
330
1F
100
AcDbEntity
  8
1
  6
Continuous
 62
     4
100
AcDbLine
 10
-180.239567299729
 20
288.133862258728
 30
0.0
 11
-180.239567299729
 21
290.633862258728
 31
0.0
  0
LINE
  5
152
330
1F
100
AcDbEntity
  8
1
  6
Continuous
 62
     4
100
AcDbLine
 10
-179.989567299729
 20
286.633862258728
 30
0.0
 11
-180.239567299729
 21
288.133862258728
 31
0.0
  0
LINE
  5
153
330
1F
100
AcDbEntity
  8
1
  6
Continuous
 62
     4
100
AcDbLine
 10
-179.489567299729
 20
285.633862258728
 30
0.0
 11
-179.989567299729
 21
286.633862258728
 31
0.0
  0
LINE
  5
154
330
1F
100
AcDbEntity
  8
1
  6
Continuous
 62
     4
100
AcDbLine
 10
-178.989567299729
 20
285.133862258728
 30
0.0
 11
-179.489567299729
 21
285.633862258728
 31
0.0
  0
LINE
  5
155
330
1F
100
AcDbEntity
  8
1
  6
Continuous
 62
     4
100
AcDbLine
 10
-178.239567299729
 20
284.633862258728
 30
0.0
 11
-178.989567299729
 21
285.133862258728
 31
0.0
  0
LINE
  5
156
330
1F
100
AcDbEntity
  8
1
  6
Continuous
 62
     4
100
AcDbLine
 10
-177.489567299729
 20
284.383862258728
 30
0.0
 11
-178.239567299729
 21
284.633862258728
 31
0.0
  0
LINE
  5
157
330
1F
100
AcDbEntity
  8
1
  6
Continuous
 62
     4
100
AcDbLine
 10
-176.989567299729
 20
284.383862258728
 30
0.0
 11
-177.489567299729
 21
284.383862258728
 31
0.0
  0
LINE
  5
158
330
1F
100
AcDbEntity
  8
1
  6
Continuous
 62
     4
100
AcDbLine
 10
-176.239567299729
 20
284.633862258728
 30
0.0
 11
-176.989567299729
 21
284.383862258728
 31
0.0
  0
LINE
  5
159
330
1F
100
AcDbEntity
  8
1
  6
Continuous
 62
     4
100
AcDbLine
 10
-175.489567299729
 20
285.133862258728
 30
0.0
 11
-176.239567299729
 21
284.633862258728
 31
0.0
  0
LINE
  5
15A
330
1F
100
AcDbEntity
  8
1
  6
Continuous
 62
     4
100
AcDbLine
 10
-174.989567299729
 20
285.633862258728
 30
0.0
 11
-175.489567299729
 21
285.133862258728
 31
0.0
  0
LINE
  5
15B
330
1F
100
AcDbEntity
  8
1
  6
Continuous
 62
     4
100
AcDbLine
 10
-174.489567299729
 20
286.633862258728
 30
0.0
 11
-174.989567299729
 21
285.633862258728
 31
0.0
  0
LINE
  5
15C
330
1F
100
AcDbEntity
  8
1
  6
Continuous
 62
     4
100
AcDbLine
 10
-174.239567299729
 20
288.133862258728
 30
0.0
 11
-174.489567299729
 21
286.633862258728
 31
0.0
  0
LINE
  5
15D
330
1F
100
AcDbEntity
  8
1
  6
Continuous
 62
     4
100
AcDbLine
 10
-189.239567299729
 20
284.383862258728
 30
0.0
 11
-183.239567299729
 21
284.383862258728
 31
0.0
  0
LINE
  5
15E
330
1F
100
AcDbEntity
  8
1
  6
Continuous
 62
     4
100
AcDbLine
 10
-183.739567299729
 20
290.883862258728
 30
0.0
 11
-189.239567299729
 21
284.383862258728
 31
0.0
  0
LINE
  5
15F
330
1F
100
AcDbEntity
  8
1
  6
Continuous
 62
     4
100
AcDbLine
 10
-183.239567299729
 20
291.883862258728
 30
0.0
 11
-183.739567299729
 21
290.883862258728
 31
0.0
  0
LINE
  5
160
330
1F
100
AcDbEntity
  8
1
  6
Continuous
 62
     4
100
AcDbLine
 10
-183.239567299729
 20
292.883862258728
 30
0.0
 11
-183.239567299729
 21
291.883862258728
 31
0.0
  0
LINE
  5
161
330
1F
100
AcDbEntity
  8
1
  6
Continuous
 62
     4
100
AcDbLine
 10
-183.739567299729
 20
293.633862258728
 30
0.0
 11
-183.239567299729
 21
292.883862258728
 31
0.0
  0
LINE
  5
162
330
1F
100
AcDbEntity
  8
1
  6
Continuous
 62
     4
100
AcDbLine
 10
-184.489567299729
 20
294.133862258728
 30
0.0
 11
-183.739567299729
 21
293.633862258728
 31
0.0
  0
LINE
  5
163
330
1F
100
AcDbEntity
  8
1
  6
Continuous
 62
     4
100
AcDbLine
 10
-185.489567299729
 20
294.383862258728
 30
0.0
 11
-184.489567299729
 21
294.133862258728
 31
0.0
  0
LINE
  5
164
330
1F
100
AcDbEntity
  8
1
  6
Continuous
 62
     4
100
AcDbLine
 10
-186.989567299729
 20
294.383862258728
 30
0.0
 11
-185.489567299729
 21
294.383862258728
 31
0.0
  0
LINE
  5
165
330
1F
100
AcDbEntity
  8
1
  6
Continuous
 62
     4
100
AcDbLine
 10
-187.989567299729
 20
294.133862258728
 30
0.0
 11
-186.989567299729
 21
294.383862258728
 31
0.0
  0
LINE
  5
166
330
1F
100
AcDbEntity
  8
1
  6
Continuous
 62
     4
100
AcDbLine
 10
-188.739567299729
 20
293.633862258728
 30
0.0
 11
-187.989567299729
 21
294.133862258728
 31
0.0
  0
LINE
  5
167
330
1F
100
AcDbEntity
  8
1
  6
Continuous
 62
     4
100
AcDbLine
 10
-189.239567299729
 20
292.883862258728
 30
0.0
 11
-188.739567299729
 21
293.633862258728
 31
0.0
  0
LINE
  5
168
330
1F
100
AcDbEntity
  8
1
  6
Continuous
 62
     4
100
AcDbLine
 10
-197.239567299729
 20
287.883862258728
 30
0.0
 11
-192.239567299729
 21
287.883862258728
 31
0.0
  0
LINE
  5
169
330
1F
100
AcDbEntity
  8
1
  6
Continuous
 62
     4
100
AcDbLine
 10
-200.489567299729
 20
292.383862258728
 30
0.0
 11
-200.239567299729
 21
291.383862258728
 31
0.0
  0
LINE
  5
16A
330
1F
100
AcDbEntity
  8
1
  6
Continuous
 62
     4
100
AcDbLine
 10
-200.989567299729
 20
293.133862258728
 30
0.0
 11
-200.489567299729
 21
292.383862258728
 31
0.0
  0
LINE
  5
16B
330
1F
100
AcDbEntity
  8
1
  6
Continuous
 62
     4
100
AcDbLine
 10
-201.489567299729
 20
293.633862258728
 30
0.0
 11
-200.989567299729
 21
293.133862258728
 31
0.0
  0
LINE
  5
16C
330
1F
100
AcDbEntity
  8
1
  6
Continuous
 62
     4
100
AcDbLine
 10
-202.239567299729
 20
294.133862258728
 30
0.0
 11
-201.489567299729
 21
293.633862258728
 31
0.0
  0
LINE
  5
16D
330
1F
100
AcDbEntity
  8
1
  6
Continuous
 62
     4
100
AcDbLine
 10
-203.239567299729
 20
294.383862258728
 30
0.0
 11
-202.239567299729
 21
294.133862258728
 31
0.0
  0
LINE
  5
16E
330
1F
100
AcDbEntity
  8
1
  6
Continuous
 62
     4
100
AcDbLine
 10
-207.239567299729
 20
294.383862258728
 30
0.0
 11
-203.239567299729
 21
294.383862258728
 31
0.0
  0
LINE
  5
16F
330
1F
100
AcDbEntity
  8
1
  6
Continuous
 62
     4
100
AcDbLine
 10
-207.239567299729
 20
284.383862258728
 30
0.0
 11
-207.239567299729
 21
294.383862258728
 31
0.0
  0
LINE
  5
170
330
1F
100
AcDbEntity
  8
1
  6
Continuous
 62
     4
100
AcDbLine
 10
-203.239567299729
 20
284.383862258728
 30
0.0
 11
-207.239567299729
 21
284.383862258728
 31
0.0
  0
LINE
  5
171
330
1F
100
AcDbEntity
  8
1
  6
Continuous
 62
     4
100
AcDbLine
 10
-202.239567299729
 20
284.633862258728
 30
0.0
 11
-203.239567299729
 21
284.383862258728
 31
0.0
  0
LINE
  5
172
330
1F
100
AcDbEntity
  8
1
  6
Continuous
 62
     4
100
AcDbLine
 10
-201.489567299729
 20
285.133862258728
 30
0.0
 11
-202.239567299729
 21
284.633862258728
 31
0.0
  0
LINE
  5
173
330
1F
100
AcDbEntity
  8
1
  6
Continuous
 62
     4
100
AcDbLine
 10
-200.989567299729
 20
285.633862258728
 30
0.0
 11
-201.489567299729
 21
285.133862258728
 31
0.0
  0
LINE
  5
174
330
1F
100
AcDbEntity
  8
1
  6
Continuous
 62
     4
100
AcDbLine
 10
-200.489567299729
 20
286.383862258728
 30
0.0
 11
-200.989567299729
 21
285.633862258728
 31
0.0
  0
LINE
  5
175
330
1F
100
AcDbEntity
  8
1
  6
Continuous
 62
     4
100
AcDbLine
 10
-200.239567299729
 20
287.383862258728
 30
0.0
 11
-200.489567299729
 21
286.383862258728
 31
0.0
  0
LINE
  5
176
330
1F
100
AcDbEntity
  8
1
  6
Continuous
 62
     4
100
AcDbLine
 10
-200.239567299729
 20
291.383862258728
 30
0.0
 11
-200.239567299729
 21
287.383862258728
 31
0.0
  0
LINE
  5
177
330
1F
100
AcDbEntity
  8
1
  6
Continuous
 62
     4
100
AcDbLine
 10
-216.739567299729
 20
289.883862258728
 30
0.0
 11
-216.739567299729
 21
294.383862258728
 31
0.0
  0
LINE
  5
178
330
1F
100
AcDbEntity
  8
1
  6
Continuous
 62
     4
100
AcDbLine
 10
-211.989567299729
 20
290.133862258728
 30
0.0
 11
-212.739567299729
 21
289.883862258728
 31
0.0
  0
LINE
  5
179
330
1F
100
AcDbEntity
  8
1
  6
Continuous
 62
     4
100
AcDbLine
 10
-211.239567299729
 20
290.633862258728
 30
0.0
 11
-211.989567299729
 21
290.133862258728
 31
0.0
  0
LINE
  5
17A
330
1F
100
AcDbEntity
  8
1
  6
Continuous
 62
     4
100
AcDbLine
 10
-210.739567299729
 20
291.633862258728
 30
0.0
 11
-211.239567299729
 21
290.633862258728
 31
0.0
  0
LINE
  5
17B
330
1F
100
AcDbEntity
  8
1
  6
Continuous
 62
     4
100
AcDbLine
 10
-210.739567299729
 20
292.383862258728
 30
0.0
 11
-210.739567299729
 21
291.633862258728
 31
0.0
  0
LINE
  5
17C
330
1F
100
AcDbEntity
  8
1
  6
Continuous
 62
     4
100
AcDbLine
 10
-210.989567299729
 20
293.383862258728
 30
0.0
 11
-210.739567299729
 21
292.383862258728
 31
0.0
  0
LINE
  5
17D
330
1F
100
AcDbEntity
  8
1
  6
Continuous
 62
     4
100
AcDbLine
 10
-211.739567299729
 20
294.133862258728
 30
0.0
 11
-210.989567299729
 21
293.383862258728
 31
0.0
  0
LINE
  5
17E
330
1F
100
AcDbEntity
  8
1
  6
Continuous
 62
     4
100
AcDbLine
 10
-212.989567299729
 20
294.383862258728
 30
0.0
 11
-211.739567299729
 21
294.133862258728
 31
0.0
  0
LINE
  5
17F
330
1F
100
AcDbEntity
  8
1
  6
Continuous
 62
     4
100
AcDbLine
 10
-216.739567299729
 20
294.383862258728
 30
0.0
 11
-212.989567299729
 21
294.383862258728
 31
0.0
  0
LINE
  5
180
330
1F
100
AcDbEntity
  8
1
  6
Continuous
 62
     4
100
AcDbLine
 10
-216.739567299729
 20
284.383862258728
 30
0.0
 11
-216.739567299729
 21
289.883862258728
 31
0.0
  0
LINE
  5
181
330
1F
100
AcDbEntity
  8
1
  6
Continuous
 62
     4
100
AcDbLine
 10
-212.239567299729
 20
284.383862258728
 30
0.0
 11
-216.739567299729
 21
284.383862258728
 31
0.0
  0
LINE
  5
182
330
1F
100
AcDbEntity
  8
1
  6
Continuous
 62
     4
100
AcDbLine
 10
-211.239567299729
 20
284.883862258728
 30
0.0
 11
-212.239567299729
 21
284.383862258728
 31
0.0
  0
LINE
  5
183
330
1F
100
AcDbEntity
  8
1
  6
Continuous
 62
     4
100
AcDbLine
 10
-210.739567299729
 20
285.383862258728
 30
0.0
 11
-211.239567299729
 21
284.883862258728
 31
0.0
  0
LINE
  5
184
330
1F
100
AcDbEntity
  8
1
  6
Continuous
 62
     4
100
AcDbLine
 10
-210.239567299729
 20
286.383862258728
 30
0.0
 11
-210.739567299729
 21
285.383862258728
 31
0.0
  0
LINE
  5
185
330
1F
100
AcDbEntity
  8
1
  6
Continuous
 62
     4
100
AcDbLine
 10
-210.239567299729
 20
287.633862258728
 30
0.0
 11
-210.239567299729
 21
286.383862258728
 31
0.0
  0
LINE
  5
186
330
1F
100
AcDbEntity
  8
1
  6
Continuous
 62
     4
100
AcDbLine
 10
-210.739567299729
 20
288.883862258728
 30
0.0
 11
-210.239567299729
 21
287.633862258728
 31
0.0
  0
LINE
  5
187
330
1F
100
AcDbEntity
  8
1
  6
Continuous
 62
     4
100
AcDbLine
 10
-211.239567299729
 20
289.383862258728
 30
0.0
 11
-210.739567299729
 21
288.883862258728
 31
0.0
  0
LINE
  5
188
330
1F
100
AcDbEntity
  8
1
  6
Continuous
 62
     4
100
AcDbLine
 10
-212.239567299729
 20
289.883862258728
 30
0.0
 11
-211.239567299729
 21
289.383862258728
 31
0.0
  0
LINE
  5
189
330
1F
100
AcDbEntity
  8
1
  6
Continuous
 62
     4
100
AcDbLine
 10
-212.739567299729
 20
289.883862258728
 30
0.0
 11
-212.239567299729
 21
289.883862258728
 31
0.0
  0
LINE
  5
18A
330
1F
100
AcDbEntity
  8
1
  6
Continuous
 62
     4
100
AcDbLine
 10
-216.739567299729
 20
289.883862258728
 30
0.0
 11
-212.739567299729
 21
289.883862258728
 31
0.0
  0
LINE
  5
18B
330
1F
100
AcDbEntity
  8
1
  6
Continuous
 62
     4
100
AcDbLine
 10
115.4601056064127
 20
87.2908956760284
 30
0.0
 11
116.4601056064127
 21
86.6658956760284
 31
0.0
  0
LINE
  5
18C
330
1F
100
AcDbEntity
  8
1
  6
Continuous
 62
     4
100
AcDbLine
 10
116.8351056064127
 20
87.6033956760284
 30
0.0
 11
116.0226056064127
 21
88.2283956760284
 31
0.0
  0
LINE
  5
18D
330
1F
100
AcDbEntity
  8
1
  6
Continuous
 62
     4
100
AcDbLine
 10
117.5226056064127
 20
88.3533956760284
 30
0.0
 11
117.9601056064127
 21
87.9158956760284
 31
0.0
  0
LINE
  5
18E
330
1F
100
AcDbEntity
  8
1
  6
Continuous
 62
     4
100
AcDbLine
 10
118.2726056064127
 20
88.2283956760284
 30
0.0
 11
117.8351056064127
 21
88.6658956760284
 31
0.0
  0
LINE
  5
18F
330
1F
100
AcDbEntity
  8
1
  6
Continuous
 62
     4
100
AcDbLine
 10
117.9601056064127
 20
86.3533956760284
 30
0.0
 11
118.6476056064127
 21
87.2908956760284
 31
0.0
  0
LINE
  5
190
330
1F
100
AcDbEntity
  8
1
  6
Continuous
 62
     4
100
AcDbLine
 10
116.8351056064127
 20
85.4158956760284
 30
0.0
 11
117.9601056064127
 21
86.3533956760284
 31
0.0
  0
LINE
  5
191
330
1F
100
AcDbEntity
  8
1
  6
Continuous
 62
     4
100
AcDbLine
 10
115.7726056064127
 20
84.7908956760284
 30
0.0
 11
116.8351056064127
 21
85.4158956760284
 31
0.0
  0
LINE
  5
192
330
1F
100
AcDbEntity
  8
1
  6
Continuous
 62
     4
100
AcDbLine
 10
113.0851056064127
 20
86.1658956760284
 30
0.0
 11
113.5226056064127
 21
85.5408956760284
 31
0.0
  0
LINE
  5
193
330
1F
100
AcDbEntity
  8
1
  6
Continuous
 62
     4
100
AcDbLine
 10
112.5226056064127
 20
86.6658956760284
 30
0.0
 11
113.0851056064127
 21
86.1658956760284
 31
0.0
  0
LINE
  5
194
330
1F
100
AcDbEntity
  8
1
  6
Continuous
 62
     4
100
AcDbLine
 10
112.1476056064127
 20
88.6658956760284
 30
0.0
 11
112.3976056064127
 21
88.3533956760284
 31
0.0
  0
LINE
  5
195
330
1F
100
AcDbEntity
  8
1
  6
Continuous
 62
     4
100
AcDbLine
 10
111.5851056064127
 20
88.9783956760284
 30
0.0
 11
112.1476056064127
 21
88.6658956760284
 31
0.0
  0
LINE
  5
196
330
1F
100
AcDbEntity
  8
1
  6
Continuous
 62
     4
100
AcDbLine
 10
112.8351056064127
 20
87.7283956760284
 30
0.0
 11
110.8976056064127
 21
87.7283956760284
 31
0.0
  0
LINE
  5
197
330
1F
100
AcDbEntity
  8
1
  6
Continuous
 62
     4
100
AcDbLine
 10
111.8351056064127
 20
86.6658956760284
 30
0.0
 11
112.8351056064127
 21
87.7283956760284
 31
0.0
  0
LINE
  5
198
330
1F
100
AcDbEntity
  8
1
  6
Continuous
 62
     4
100
AcDbLine
 10
110.4601056064127
 20
85.7283956760284
 30
0.0
 11
111.8351056064127
 21
86.6658956760284
 31
0.0
  0
LINE
  5
199
330
1F
100
AcDbEntity
  8
1
  6
Continuous
 62
     4
100
AcDbLine
 10
112.0226056064127
 20
84.7908956760284
 30
0.0
 11
112.0226056064127
 21
86.7908956760284
 31
0.0
  0
LINE
  5
19A
330
1F
100
AcDbEntity
  8
1
  6
Continuous
 62
     4
100
AcDbLine
 10
105.2726056064127
 20
84.2908956760284
 30
0.0
 11
108.2726056064127
 21
84.2908956760284
 31
0.0
  0
LINE
  5
19B
330
1F
100
AcDbEntity
  8
1
  6
Continuous
 62
     4
100
AcDbLine
 10
108.0226056064127
 20
87.5408956760284
 30
0.0
 11
105.2726056064127
 21
84.2908956760284
 31
0.0
  0
LINE
  5
19C
330
1F
100
AcDbEntity
  8
1
  6
Continuous
 62
     4
100
AcDbLine
 10
108.2726056064127
 20
88.0408956760284
 30
0.0
 11
108.0226056064127
 21
87.5408956760284
 31
0.0
  0
LINE
  5
19D
330
1F
100
AcDbEntity
  8
1
  6
Continuous
 62
     4
100
AcDbLine
 10
108.2726056064127
 20
88.5408956760284
 30
0.0
 11
108.2726056064127
 21
88.0408956760284
 31
0.0
  0
LINE
  5
19E
330
1F
100
AcDbEntity
  8
1
  6
Continuous
 62
     4
100
AcDbLine
 10
108.0226056064127
 20
88.9158956760284
 30
0.0
 11
108.2726056064127
 21
88.5408956760284
 31
0.0
  0
LINE
  5
19F
330
1F
100
AcDbEntity
  8
1
  6
Continuous
 62
     4
100
AcDbLine
 10
107.6476056064127
 20
89.1658956760284
 30
0.0
 11
108.0226056064127
 21
88.9158956760284
 31
0.0
  0
LINE
  5
1A0
330
1F
100
AcDbEntity
  8
1
  6
Continuous
 62
     4
100
AcDbLine
 10
107.1476056064127
 20
89.2908956760284
 30
0.0
 11
107.6476056064127
 21
89.1658956760284
 31
0.0
  0
LINE
  5
1A1
330
1F
100
AcDbEntity
  8
1
  6
Continuous
 62
     4
100
AcDbLine
 10
106.3976056064127
 20
89.2908956760284
 30
0.0
 11
107.1476056064127
 21
89.2908956760284
 31
0.0
  0
LINE
  5
1A2
330
1F
100
AcDbEntity
  8
1
  6
Continuous
 62
     4
100
AcDbLine
 10
105.8976056064127
 20
89.1658956760284
 30
0.0
 11
106.3976056064127
 21
89.2908956760284
 31
0.0
  0
LINE
  5
1A3
330
1F
100
AcDbEntity
  8
1
  6
Continuous
 62
     4
100
AcDbLine
 10
105.5226056064127
 20
88.9158956760284
 30
0.0
 11
105.8976056064127
 21
89.1658956760284
 31
0.0
  0
LINE
  5
1A4
330
1F
100
AcDbEntity
  8
1
  6
Continuous
 62
     4
100
AcDbLine
 10
105.2726056064127
 20
88.5408956760284
 30
0.0
 11
105.5226056064127
 21
88.9158956760284
 31
0.0
  0
LINE
  5
1A5
330
1F
100
AcDbEntity
  8
1
  6
Continuous
 62
     4
100
AcDbLine
 10
101.7726056064127
 20
84.2908956760284
 30
0.0
 11
103.7726056064127
 21
89.2908956760284
 31
0.0
  0
LINE
  5
1A6
330
1F
100
AcDbEntity
  8
1
  6
Continuous
 62
     4
100
AcDbLine
 10
100.2726056064127
 20
89.2908956760284
 30
0.0
 11
100.2726056064127
 21
84.2908956760284
 31
0.0
  0
LINE
  5
1A7
330
1F
100
AcDbEntity
  8
1
  6
Continuous
 62
     4
100
AcDbLine
 10
98.7726056064127
 20
87.7908956760284
 30
0.0
 11
100.2726056064127
 21
89.2908956760284
 31
0.0
  0
LINE
  5
1A8
330
1F
100
AcDbEntity
  8
1
  6
Continuous
 62
     4
100
AcDbLine
 10
93.7726056064127
 20
84.2908956760284
 30
0.0
 11
93.7726056064127
 21
86.7908956760284
 31
0.0
  0
LINE
  5
1A9
330
1F
100
AcDbEntity
  8
1
  6
Continuous
 62
     4
100
AcDbLine
 10
95.7726056064127
 20
86.7908956760284
 30
0.0
 11
97.2726056064127
 21
84.2908956760284
 31
0.0
  0
LINE
  5
1AA
330
1F
100
AcDbEntity
  8
1
  6
Continuous
 62
     4
100
AcDbLine
 10
96.1476056064127
 20
86.7908956760284
 30
0.0
 11
95.7726056064127
 21
86.7908956760284
 31
0.0
  0
LINE
  5
1AB
330
1F
100
AcDbEntity
  8
1
  6
Continuous
 62
     4
100
AcDbLine
 10
96.6476056064127
 20
86.9158956760284
 30
0.0
 11
96.1476056064127
 21
86.7908956760284
 31
0.0
  0
LINE
  5
1AC
330
1F
100
AcDbEntity
  8
1
  6
Continuous
 62
     4
100
AcDbLine
 10
97.0226056064127
 20
87.1658956760284
 30
0.0
 11
96.6476056064127
 21
86.9158956760284
 31
0.0
  0
LINE
  5
1AD
330
1F
100
AcDbEntity
  8
1
  6
Continuous
 62
     4
100
AcDbLine
 10
97.1476056064127
 20
87.4158956760284
 30
0.0
 11
97.0226056064127
 21
87.1658956760284
 31
0.0
  0
LINE
  5
1AE
330
1F
100
AcDbEntity
  8
1
  6
Continuous
 62
     4
100
AcDbLine
 10
97.2726056064127
 20
87.7908956760284
 30
0.0
 11
97.1476056064127
 21
87.4158956760284
 31
0.0
  0
LINE
  5
1AF
330
1F
100
AcDbEntity
  8
1
  6
Continuous
 62
     4
100
AcDbLine
 10
97.2726056064127
 20
88.2908956760284
 30
0.0
 11
97.2726056064127
 21
87.7908956760284
 31
0.0
  0
LINE
  5
1B0
330
1F
100
AcDbEntity
  8
1
  6
Continuous
 62
     4
100
AcDbLine
 10
97.1476056064127
 20
88.6658956760284
 30
0.0
 11
97.2726056064127
 21
88.2908956760284
 31
0.0
  0
LINE
  5
1B1
330
1F
100
AcDbEntity
  8
1
  6
Continuous
 62
     4
100
AcDbLine
 10
97.0226056064127
 20
88.9158956760284
 30
0.0
 11
97.1476056064127
 21
88.6658956760284
 31
0.0
  0
LINE
  5
1B2
330
1F
100
AcDbEntity
  8
1
  6
Continuous
 62
     4
100
AcDbLine
 10
96.6476056064127
 20
89.1658956760284
 30
0.0
 11
97.0226056064127
 21
88.9158956760284
 31
0.0
  0
LINE
  5
1B3
330
1F
100
AcDbEntity
  8
1
  6
Continuous
 62
     4
100
AcDbLine
 10
96.1476056064127
 20
89.2908956760284
 30
0.0
 11
96.6476056064127
 21
89.1658956760284
 31
0.0
  0
LINE
  5
1B4
330
1F
100
AcDbEntity
  8
1
  6
Continuous
 62
     4
100
AcDbLine
 10
93.7726056064127
 20
89.2908956760284
 30
0.0
 11
96.1476056064127
 21
89.2908956760284
 31
0.0
  0
LINE
  5
1B5
330
1F
100
AcDbEntity
  8
1
  6
Continuous
 62
     4
100
AcDbLine
 10
93.7726056064127
 20
86.7908956760284
 30
0.0
 11
93.7726056064127
 21
89.2908956760284
 31
0.0
  0
LINE
  5
1B6
330
1F
100
AcDbEntity
  8
1
  6
Continuous
 62
     4
100
AcDbLine
 10
95.7726056064127
 20
86.7908956760284
 30
0.0
 11
93.7726056064127
 21
86.7908956760284
 31
0.0
  0
LINE
  5
1B7
330
1F
100
AcDbEntity
  8
1
  6
Continuous
 62
     4
100
AcDbLine
 10
144.2426892554694
 20
226.429778818258
 30
0.0
 11
146.7426892554694
 21
226.429778818258
 31
0.0
  0
LINE
  5
1B8
330
1F
100
AcDbEntity
  8
1
  6
Continuous
 62
     4
100
AcDbLine
 10
146.8676892554694
 20
225.179778818258
 30
0.0
 11
144.0551892554694
 21
225.179778818258
 31
0.0
  0
LINE
  5
1B9
330
1F
100
AcDbEntity
  8
1
  6
Continuous
 62
     4
100
AcDbLine
 10
146.1801892554694
 20
227.367278818258
 30
0.0
 11
146.1801892554694
 21
223.804778818258
 31
0.0
  0
LINE
  5
1BA
330
1F
100
AcDbEntity
  8
1
  6
Continuous
 62
     4
100
AcDbLine
 10
144.9301892554694
 20
225.179778818258
 30
0.0
 11
144.9301892554694
 21
227.367278818258
 31
0.0
  0
LINE
  5
1BB
330
1F
100
AcDbEntity
  8
1
  6
Continuous
 62
     4
100
AcDbLine
 10
144.6176892554694
 20
224.429778818258
 30
0.0
 11
144.9301892554694
 21
225.179778818258
 31
0.0
  0
LINE
  5
1BC
330
1F
100
AcDbEntity
  8
1
  6
Continuous
 62
     4
100
AcDbLine
 10
144.2426892554694
 20
223.804778818258
 30
0.0
 11
144.6176892554694
 21
224.429778818258
 31
0.0
  0
LINE
  5
1BD
330
1F
100
AcDbEntity
  8
1
  6
Continuous
 62
     4
100
AcDbLine
 10
147.2426892554694
 20
223.304778818258
 30
0.0
 11
143.6801892554694
 21
223.304778818258
 31
0.0
  0
LINE
  5
1BE
330
1F
100
AcDbEntity
  8
1
  6
Continuous
 62
     4
100
AcDbLine
 10
147.2426892554694
 20
227.679778818258
 30
0.0
 11
147.2426892554694
 21
223.304778818258
 31
0.0
  0
LINE
  5
1BF
330
1F
100
AcDbEntity
  8
1
  6
Continuous
 62
     4
100
AcDbLine
 10
143.6801892554694
 20
227.679778818258
 30
0.0
 11
147.2426892554694
 21
227.679778818258
 31
0.0
  0
LINE
  5
1C0
330
1F
100
AcDbEntity
  8
1
  6
Continuous
 62
     4
100
AcDbLine
 10
143.6801892554694
 20
223.304778818258
 30
0.0
 11
143.6801892554694
 21
227.679778818258
 31
0.0
  0
LINE
  5
1C1
330
1F
100
AcDbEntity
  8
1
  6
Continuous
 62
     4
100
AcDbLine
 10
140.1801892554694
 20
225.054778818258
 30
0.0
 11
140.1801892554694
 21
224.429778818258
 31
0.0
  0
LINE
  5
1C2
330
1F
100
AcDbEntity
  8
1
  6
Continuous
 62
     4
100
AcDbLine
 10
138.4926892554694
 20
225.054778818258
 30
0.0
 11
138.4926892554694
 21
225.679778818258
 31
0.0
  0
LINE
  5
1C3
330
1F
100
AcDbEntity
  8
1
  6
Continuous
 62
     4
100
AcDbLine
 10
138.6801892554694
 20
226.929778818258
 30
0.0
 11
139.0551892554694
 21
227.992278818258
 31
0.0
  0
LINE
  5
1C4
330
1F
100
AcDbEntity
  8
1
  6
Continuous
 62
     4
100
AcDbLine
 10
140.1801892554694
 20
227.367278818258
 30
0.0
 11
138.9301892554694
 21
227.367278818258
 31
0.0
  0
LINE
  5
1C5
330
1F
100
AcDbEntity
  8
1
  6
Continuous
 62
     4
100
AcDbLine
 10
140.6176892554694
 20
226.742278818258
 30
0.0
 11
140.9926892554694
 21
227.867278818258
 31
0.0
  0
LINE
  5
1C6
330
1F
100
AcDbEntity
  8
1
  6
Continuous
 62
     4
100
AcDbLine
 10
142.4301892554694
 20
227.367278818258
 30
0.0
 11
140.8676892554694
 21
227.367278818258
 31
0.0
  0
LINE
  5
1C7
330
1F
100
AcDbEntity
  8
1
  6
Continuous
 62
     4
100
AcDbLine
 10
141.4301892554694
 20
226.617278818258
 30
0.0
 11
141.5551892554694
 21
227.054778818258
 31
0.0
  0
LINE
  5
1C8
330
1F
100
AcDbEntity
  8
1
  6
Continuous
 62
     4
100
AcDbLine
 10
142.2426892554694
 20
225.054778818258
 30
0.0
 11
141.8676892554694
 21
224.867278818258
 31
0.0
  0
LINE
  5
1C9
330
1F
100
AcDbEntity
  8
1
  6
Continuous
 62
     4
100
AcDbLine
 10
142.2426892554694
 20
226.117278818258
 30
0.0
 11
142.2426892554694
 21
225.054778818258
 31
0.0
  0
LINE
  5
1CA
330
1F
100
AcDbEntity
  8
1
  6
Continuous
 62
     4
100
AcDbLine
 10
140.8676892554694
 20
226.117278818258
 30
0.0
 11
142.2426892554694
 21
226.117278818258
 31
0.0
  0
LINE
  5
1CB
330
1F
100
AcDbEntity
  8
1
  6
Continuous
 62
     4
100
AcDbLine
 10
140.8676892554694
 20
223.617278818258
 30
0.0
 11
140.8676892554694
 21
226.117278818258
 31
0.0
  0
LINE
  5
1CC
330
1F
100
AcDbEntity
  8
1
  6
Continuous
 62
     4
100
AcDbLine
 10
141.4301892554694
 20
223.179778818258
 30
0.0
 11
140.8676892554694
 21
223.617278818258
 31
0.0
  0
LINE
  5
1CD
330
1F
100
AcDbEntity
  8
1
  6
Continuous
 62
     4
100
AcDbLine
 10
142.2426892554694
 20
223.179778818258
 30
0.0
 11
141.4301892554694
 21
223.179778818258
 31
0.0
  0
LINE
  5
1CE
330
1F
100
AcDbEntity
  8
1
  6
Continuous
 62
     4
100
AcDbLine
 10
142.5551892554694
 20
223.492278818258
 30
0.0
 11
142.2426892554694
 21
223.179778818258
 31
0.0
  0
LINE
  5
1CF
330
1F
100
AcDbEntity
  8
1
  6
Continuous
 62
     4
100
AcDbLine
 10
142.5551892554694
 20
223.804778818258
 30
0.0
 11
142.5551892554694
 21
223.492278818258
 31
0.0
  0
LINE
  5
1D0
330
1F
100
AcDbEntity
  8
1
  6
Continuous
 62
     4
100
AcDbLine
 10
138.3676892554694
 20
223.804778818258
 30
0.0
 11
140.3051892554694
 21
223.804778818258
 31
0.0
  0
LINE
  5
1D1
330
1F
100
AcDbEntity
  8
1
  6
Continuous
 62
     4
100
AcDbLine
 10
140.1801892554694
 20
225.054778818258
 30
0.0
 11
138.4926892554694
 21
225.054778818258
 31
0.0
  0
LINE
  5
1D2
330
1F
100
AcDbEntity
  8
1
  6
Continuous
 62
     4
100
AcDbLine
 10
138.4926892554694
 20
225.679778818258
 30
0.0
 11
140.1801892554694
 21
225.679778818258
 31
0.0
  0
LINE
  5
1D3
330
1F
100
AcDbEntity
  8
1
  6
Continuous
 62
     4
100
AcDbLine
 10
138.4926892554694
 20
224.429778818258
 30
0.0
 11
138.4926892554694
 21
225.054778818258
 31
0.0
  0
LINE
  5
1D4
330
1F
100
AcDbEntity
  8
1
  6
Continuous
 62
     4
100
AcDbLine
 10
140.1801892554694
 20
224.429778818258
 30
0.0
 11
138.4926892554694
 21
224.429778818258
 31
0.0
  0
LINE
  5
1D5
330
1F
100
AcDbEntity
  8
1
  6
Continuous
 62
     4
100
AcDbLine
 10
140.1801892554694
 20
225.679778818258
 30
0.0
 11
140.1801892554694
 21
225.054778818258
 31
0.0
  0
LINE
  5
1D6
330
1F
100
AcDbEntity
  8
1
  6
Continuous
 62
     4
100
AcDbLine
 10
138.4926892554694
 20
226.304778818258
 30
0.0
 11
140.1801892554694
 21
226.304778818258
 31
0.0
  0
LINE
  5
1D7
330
1F
100
AcDbEntity
  8
1
  6
Continuous
 62
     4
100
AcDbLine
 10
139.9301892554694
 20
226.742278818258
 30
0.0
 11
139.4926892554694
 21
227.242278818258
 31
0.0
  0
LINE
  5
1D8
330
1F
100
AcDbEntity
  8
1
  6
Continuous
 62
     4
100
AcDbLine
 10
139.3676892554694
 20
222.992278818258
 30
0.0
 11
139.3676892554694
 21
226.617278818258
 31
0.0
  0
LINE
  5
1D9
330
1F
100
AcDbEntity
  8
1
  6
Continuous
 62
     4
100
AcDbLine
 10
134.9301892554694
 20
225.804778818258
 30
0.0
 11
134.9301892554694
 21
226.617278818258
 31
0.0
  0
LINE
  5
1DA
330
1F
100
AcDbEntity
  8
1
  6
Continuous
 62
     4
100
AcDbLine
 10
133.4926892554694
 20
225.804778818258
 30
0.0
 11
133.4926892554694
 21
225.054778818258
 31
0.0
  0
LINE
  5
1DB
330
1F
100
AcDbEntity
  8
1
  6
Continuous
 62
     4
100
AcDbLine
 10
136.3051892554694
 20
225.992278818258
 30
0.0
 11
137.6801892554694
 21
225.992278818258
 31
0.0
  0
LINE
  5
1DC
330
1F
100
AcDbEntity
  8
1
  6
Continuous
 62
     4
100
AcDbLine
 10
136.8676892554694
 20
224.742278818258
 30
0.0
 11
137.4301892554694
 21
223.179778818258
 31
0.0
  0
LINE
  5
1DD
330
1F
100
AcDbEntity
  8
1
  6
Continuous
 62
     4
100
AcDbLine
 10
135.0551892554694
 20
223.492278818258
 30
0.0
 11
137.1176892554694
 21
223.804778818258
 31
0.0
  0
LINE
  5
1DE
330
1F
100
AcDbEntity
  8
1
  6
Continuous
 62
     4
100
AcDbLine
 10
136.3051892554694
 20
225.992278818258
 30
0.0
 11
135.4926892554694
 21
223.492278818258
 31
0.0
  0
LINE
  5
1DF
330
1F
100
AcDbEntity
  8
1
  6
Continuous
 62
     4
100
AcDbLine
 10
137.2426892554694
 20
227.554778818258
 30
0.0
 11
135.6176892554694
 21
227.554778818258
 31
0.0
  0
LINE
  5
1E0
330
1F
100
AcDbEntity
  8
1
  6
Continuous
 62
     4
100
AcDbLine
 10
135.3051892554694
 20
225.992278818258
 30
0.0
 11
136.3051892554694
 21
225.992278818258
 31
0.0
  0
LINE
  5
1E1
330
1F
100
AcDbEntity
  8
1
  6
Continuous
 62
     4
100
AcDbLine
 10
133.2426892554694
 20
224.242278818258
 30
0.0
 11
135.1801892554694
 21
224.242278818258
 31
0.0
  0
LINE
  5
1E2
330
1F
100
AcDbEntity
  8
1
  6
Continuous
 62
     4
100
AcDbLine
 10
134.9301892554694
 20
225.804778818258
 30
0.0
 11
133.4926892554694
 21
225.804778818258
 31
0.0
  0
LINE
  5
1E3
330
1F
100
AcDbEntity
  8
1
  6
Continuous
 62
     4
100
AcDbLine
 10
134.9301892554694
 20
225.054778818258
 30
0.0
 11
134.9301892554694
 21
225.804778818258
 31
0.0
  0
LINE
  5
1E4
330
1F
100
AcDbEntity
  8
1
  6
Continuous
 62
     4
100
AcDbLine
 10
133.4926892554694
 20
225.054778818258
 30
0.0
 11
134.9301892554694
 21
225.054778818258
 31
0.0
  0
LINE
  5
1E5
330
1F
100
AcDbEntity
  8
1
  6
Continuous
 62
     4
100
AcDbLine
 10
133.4926892554694
 20
226.617278818258
 30
0.0
 11
133.4926892554694
 21
225.804778818258
 31
0.0
  0
LINE
  5
1E6
330
1F
100
AcDbEntity
  8
1
  6
Continuous
 62
     4
100
AcDbLine
 10
134.9301892554694
 20
226.617278818258
 30
0.0
 11
133.4926892554694
 21
226.617278818258
 31
0.0
  0
LINE
  5
1E7
330
1F
100
AcDbEntity
  8
1
  6
Continuous
 62
     4
100
AcDbLine
 10
133.3676892554694
 20
227.367278818258
 30
0.0
 11
135.1801892554694
 21
227.367278818258
 31
0.0
  0
LINE
  5
1E8
330
1F
100
AcDbEntity
  8
1
  6
Continuous
 62
     4
100
AcDbLine
 10
134.2426892554694
 20
222.992278818258
 30
0.0
 11
134.2426892554694
 21
227.992278818258
 31
0.0
  0
LINE
  5
1E9
330
1F
100
AcDbEntity
  8
1
  6
Continuous
 62
     4
100
AcDbLine
 10
129.7426892554694
 20
226.304778818258
 30
0.0
 11
129.7426892554694
 21
224.429778818258
 31
0.0
  0
LINE
  5
1EA
330
1F
100
AcDbEntity
  8
1
  6
Continuous
 62
     4
100
AcDbLine
 10
131.1801892554694
 20
226.304778818258
 30
0.0
 11
129.7426892554694
 21
226.304778818258
 31
0.0
  0
LINE
  5
1EB
330
1F
100
AcDbEntity
  8
1
  6
Continuous
 62
     4
100
AcDbLine
 10
131.1801892554694
 20
224.429778818258
 30
0.0
 11
131.1801892554694
 21
226.304778818258
 31
0.0
  0
LINE
  5
1EC
330
1F
100
AcDbEntity
  8
1
  6
Continuous
 62
     4
100
AcDbLine
 10
129.7426892554694
 20
224.429778818258
 30
0.0
 11
131.1801892554694
 21
224.429778818258
 31
0.0
  0
LINE
  5
1ED
330
1F
100
AcDbEntity
  8
1
  6
Continuous
 62
     4
100
AcDbLine
 10
128.6801892554694
 20
227.679778818258
 30
0.0
 11
128.6801892554694
 21
223.179778818258
 31
0.0
  0
LINE
  5
1EE
330
1F
100
AcDbEntity
  8
1
  6
Continuous
 62
     4
100
AcDbLine
 10
132.2426892554694
 20
227.679778818258
 30
0.0
 11
128.6801892554694
 21
227.679778818258
 31
0.0
  0
LINE
  5
1EF
330
1F
100
AcDbEntity
  8
1
  6
Continuous
 62
     4
100
AcDbLine
 10
132.2426892554694
 20
223.179778818258
 30
0.0
 11
132.2426892554694
 21
227.679778818258
 31
0.0
  0
LINE
  5
1F0
330
1F
100
AcDbEntity
  8
1
  6
Continuous
 62
     4
100
AcDbLine
 10
128.6801892554694
 20
223.179778818258
 30
0.0
 11
132.2426892554694
 21
223.179778818258
 31
0.0
  0
LINE
  5
1F1
330
1F
100
AcDbEntity
  8
1
  6
Continuous
 62
     4
100
AcDbLine
 10
126.9926892554694
 20
227.242278818258
 30
0.0
 11
123.9301892554694
 21
227.242278818258
 31
0.0
  0
LINE
  5
1F2
330
1F
100
AcDbEntity
  8
1
  6
Continuous
 62
     4
100
AcDbLine
 10
126.9926892554694
 20
223.804778818258
 30
0.0
 11
126.9926892554694
 21
227.242278818258
 31
0.0
  0
LINE
  5
1F3
330
1F
100
AcDbEntity
  8
1
  6
Continuous
 62
     4
100
AcDbLine
 10
123.9301892554694
 20
223.804778818258
 30
0.0
 11
126.9926892554694
 21
223.804778818258
 31
0.0
  0
LINE
  5
1F4
330
1F
100
AcDbEntity
  8
1
  6
Continuous
 62
     4
100
AcDbLine
 10
123.9301892554694
 20
227.242278818258
 30
0.0
 11
123.9301892554694
 21
223.804778818258
 31
0.0
  0
LINE
  5
1F5
330
1F
100
AcDbEntity
  8
1
  6
Continuous
 62
     4
100
AcDbLine
 10
121.3051892554694
 20
226.429778818258
 30
0.0
 11
120.3051892554694
 21
226.429778818258
 31
0.0
  0
LINE
  5
1F6
330
1F
100
AcDbEntity
  8
1
  6
Continuous
 62
     4
100
AcDbLine
 10
122.5551892554694
 20
223.179778818258
 30
0.0
 11
122.6801892554694
 21
223.617278818258
 31
0.0
  0
LINE
  5
1F7
330
1F
100
AcDbEntity
  8
1
  6
Continuous
 62
     4
100
AcDbLine
 10
122.1176892554694
 20
222.992278818258
 30
0.0
 11
122.5551892554694
 21
223.179778818258
 31
0.0
  0
LINE
  5
1F8
330
1F
100
AcDbEntity
  8
1
  6
Continuous
 62
     4
100
AcDbLine
 10
121.7426892554694
 20
223.179778818258
 30
0.0
 11
122.1176892554694
 21
222.992278818258
 31
0.0
  0
LINE
  5
1F9
330
1F
100
AcDbEntity
  8
1
  6
Continuous
 62
     4
100
AcDbLine
 10
121.4301892554694
 20
223.492278818258
 30
0.0
 11
121.7426892554694
 21
223.179778818258
 31
0.0
  0
LINE
  5
1FA
330
1F
100
AcDbEntity
  8
1
  6
Continuous
 62
     4
100
AcDbLine
 10
121.4301892554694
 20
224.867278818258
 30
0.0
 11
121.4301892554694
 21
223.492278818258
 31
0.0
  0
LINE
  5
1FB
330
1F
100
AcDbEntity
  8
1
  6
Continuous
 62
     4
100
AcDbLine
 10
120.7426892554694
 20
224.429778818258
 30
0.0
 11
120.7426892554694
 21
224.867278818258
 31
0.0
  0
LINE
  5
1FC
330
1F
100
AcDbEntity
  8
1
  6
Continuous
 62
     4
100
AcDbLine
 10
120.6176892554694
 20
223.929778818258
 30
0.0
 11
120.7426892554694
 21
224.429778818258
 31
0.0
  0
LINE
  5
1FD
330
1F
100
AcDbEntity
  8
1
  6
Continuous
 62
     4
100
AcDbLine
 10
120.3051892554694
 20
223.492278818258
 30
0.0
 11
120.6176892554694
 21
223.929778818258
 31
0.0
  0
LINE
  5
1FE
330
1F
100
AcDbEntity
  8
1
  6
Continuous
 62
     4
100
AcDbLine
 10
119.9301892554694
 20
223.179778818258
 30
0.0
 11
120.3051892554694
 21
223.492278818258
 31
0.0
  0
LINE
  5
1FF
330
1F
100
AcDbEntity
  8
1
  6
Continuous
 62
     4
100
AcDbLine
 10
122.5551892554694
 20
227.242278818258
 30
0.0
 11
120.0551892554694
 21
227.242278818258
 31
0.0
  0
LINE
  5
200
330
1F
100
AcDbEntity
  8
1
  6
Continuous
 62
     4
100
AcDbLine
 10
121.3051892554694
 20
226.429778818258
 30
0.0
 11
121.3051892554694
 21
227.867278818258
 31
0.0
  0
LINE
  5
201
330
1F
100
AcDbEntity
  8
1
  6
Continuous
 62
     4
100
AcDbLine
 10
122.2426892554694
 20
226.429778818258
 30
0.0
 11
121.3051892554694
 21
226.429778818258
 31
0.0
  0
LINE
  5
202
330
1F
100
AcDbEntity
  8
1
  6
Continuous
 62
     4
100
AcDbLine
 10
122.4301892554694
 20
225.804778818258
 30
0.0
 11
122.4301892554694
 21
225.054778818258
 31
0.0
  0
LINE
  5
203
330
1F
100
AcDbEntity
  8
1
  6
Continuous
 62
     4
100
AcDbLine
 10
120.0551892554694
 20
225.804778818258
 30
0.0
 11
122.4301892554694
 21
225.804778818258
 31
0.0
  0
LINE
  5
204
330
1F
100
AcDbEntity
  8
1
  6
Continuous
 62
     4
100
AcDbLine
 10
120.0551892554694
 20
225.054778818258
 30
0.0
 11
120.0551892554694
 21
225.804778818258
 31
0.0
  0
LINE
  5
205
330
1F
100
AcDbEntity
  8
1
  6
Continuous
 62
     4
100
AcDbLine
 10
119.7426892554694
 20
223.929778818258
 30
0.0
 11
119.6176892554694
 21
224.867278818258
 31
0.0
  0
LINE
  5
206
330
1F
100
AcDbEntity
  8
1
  6
Continuous
 62
     4
100
AcDbLine
 10
119.0551892554694
 20
225.367278818258
 30
0.0
 11
119.0551892554694
 21
223.179778818258
 31
0.0
  0
LINE
  5
207
330
1F
100
AcDbEntity
  8
1
  6
Continuous
 62
     4
100
AcDbLine
 10
119.3676892554694
 20
225.992278818258
 30
0.0
 11
119.7426892554694
 21
225.179778818258
 31
0.0
  0
LINE
  5
208
330
1F
100
AcDbEntity
  8
1
  6
Continuous
 62
     4
100
AcDbLine
 10
118.3676892554694
 20
225.367278818258
 30
0.0
 11
119.4926892554694
 21
225.492278818258
 31
0.0
  0
LINE
  5
209
330
1F
100
AcDbEntity
  8
1
  6
Continuous
 62
     4
100
AcDbLine
 10
118.3676892554694
 20
226.929778818258
 30
0.0
 11
118.9301892554694
 21
226.117278818258
 31
0.0
  0
LINE
  5
20A
330
1F
100
AcDbEntity
  8
1
  6
Continuous
 62
     4
100
AcDbLine
 10
119.0551892554694
 20
227.867278818258
 30
0.0
 11
118.4926892554694
 21
226.742278818258
 31
0.0
  0
LINE
  5
20B
330
1F
100
AcDbEntity
  8
1
  6
Continuous
 62
     4
100
AcDbLine
 10
118.6801892554694
 20
225.492278818258
 30
0.0
 11
119.4926892554694
 21
227.242278818258
 31
0.0
  0
LINE
  5
20C
330
1F
100
AcDbEntity
  8
1
  6
Continuous
 62
     4
100
AcDbLine
 10
118.4926892554694
 20
224.117278818258
 30
0.0
 11
118.6801892554694
 21
224.742278818258
 31
0.0
  0
LINE
  5
20D
330
1F
100
AcDbEntity
  8
1
  6
Continuous
 62
     4
100
AcDbLine
 10
118.3676892554694
 20
223.617278818258
 30
0.0
 11
118.4926892554694
 21
224.117278818258
 31
0.0
  0
LINE
  5
20E
330
1F
100
AcDbEntity
  8
1
  6
Continuous
 62
     4
100
AcDbLine
 10
116.4301892554694
 20
226.929778818258
 30
0.0
 11
115.3051892554694
 21
226.929778818258
 31
0.0
  0
LINE
  5
20F
330
1F
100
AcDbEntity
  8
1
  6
Continuous
 62
     4
100
AcDbLine
 10
116.1801892554694
 20
225.804778818258
 30
0.0
 11
117.5551892554694
 21
225.804778818258
 31
0.0
  0
LINE
  5
210
330
1F
100
AcDbEntity
  8
1
  6
Continuous
 62
     4
100
AcDbLine
 10
116.9926892554694
 20
224.867278818258
 30
0.0
 11
114.9301892554694
 21
224.867278818258
 31
0.0
  0
LINE
  5
211
330
1F
100
AcDbEntity
  8
1
  6
Continuous
 62
     4
100
AcDbLine
 10
116.7426892554694
 20
224.117278818258
 30
0.0
 11
116.9926892554694
 21
224.867278818258
 31
0.0
  0
LINE
  5
212
330
1F
100
AcDbEntity
  8
1
  6
Continuous
 62
     4
100
AcDbLine
 10
116.1801892554694
 20
223.492278818258
 30
0.0
 11
116.7426892554694
 21
224.117278818258
 31
0.0
  0
LINE
  5
213
330
1F
100
AcDbEntity
  8
1
  6
Continuous
 62
     4
100
AcDbLine
 10
115.1801892554694
 20
223.179778818258
 30
0.0
 11
116.1801892554694
 21
223.492278818258
 31
0.0
  0
LINE
  5
214
330
1F
100
AcDbEntity
  8
1
  6
Continuous
 62
     4
100
AcDbLine
 10
117.6801892554694
 20
224.867278818258
 30
0.0
 11
116.9926892554694
 21
224.867278818258
 31
0.0
  0
LINE
  5
215
330
1F
100
AcDbEntity
  8
1
  6
Continuous
 62
     4
100
AcDbLine
 10
116.7426892554694
 20
223.617278818258
 30
0.0
 11
117.6801892554694
 21
223.179778818258
 31
0.0
  0
LINE
  5
216
330
1F
100
AcDbEntity
  8
1
  6
Continuous
 62
     4
100
AcDbLine
 10
115.6176892554694
 20
223.929778818258
 30
0.0
 11
116.7426892554694
 21
223.617278818258
 31
0.0
  0
LINE
  5
217
330
1F
100
AcDbEntity
  8
1
  6
Continuous
 62
     4
100
AcDbLine
 10
116.1801892554694
 20
225.804778818258
 30
0.0
 11
115.6176892554694
 21
223.929778818258
 31
0.0
  0
LINE
  5
218
330
1F
100
AcDbEntity
  8
1
  6
Continuous
 62
     4
100
AcDbLine
 10
116.9926892554694
 20
226.742278818258
 30
0.0
 11
116.5551892554694
 21
225.804778818258
 31
0.0
  0
LINE
  5
219
330
1F
100
AcDbEntity
  8
1
  6
Continuous
 62
     4
100
AcDbLine
 10
115.6176892554694
 20
226.742278818258
 30
0.0
 11
115.8676892554694
 21
226.117278818258
 31
0.0
  0
LINE
  5
21A
330
1F
100
AcDbEntity
  8
1
  6
Continuous
 62
     4
100
AcDbLine
 10
116.4301892554694
 20
227.867278818258
 30
0.0
 11
116.4301892554694
 21
226.929778818258
 31
0.0
  0
LINE
  5
21B
330
1F
100
AcDbEntity
  8
1
  6
Continuous
 62
     4
100
AcDbLine
 10
117.5551892554694
 20
226.929778818258
 30
0.0
 11
116.4301892554694
 21
226.929778818258
 31
0.0
  0
LINE
  5
21C
330
1F
100
AcDbEntity
  8
1
  6
Continuous
 62
     4
100
AcDbLine
 10
115.0551892554694
 20
225.804778818258
 30
0.0
 11
116.1801892554694
 21
225.804778818258
 31
0.0
  0
LINE
  5
21D
330
1F
100
AcDbEntity
  8
1
  6
Continuous
 62
     4
100
AcDbLine
 10
113.3676892554694
 20
224.554778818258
 30
0.0
 11
114.6176892554694
 21
225.679778818258
 31
0.0
  0
LINE
  5
21E
330
1F
100
AcDbEntity
  8
1
  6
Continuous
 62
     4
100
AcDbLine
 10
114.7426892554694
 20
226.929778818258
 30
0.0
 11
113.2426892554694
 21
226.929778818258
 31
0.0
  0
LINE
  5
21F
330
1F
100
AcDbEntity
  8
1
  6
Continuous
 62
     4
100
AcDbLine
 10
114.2426892554694
 20
222.992278818258
 30
0.0
 11
114.2426892554694
 21
227.867278818258
 31
0.0
  0
LINE
  5
220
330
1F
100
AcDbEntity
  8
1
  6
Continuous
 62
     4
100
AcDbLine
 10
113.8051892554694
 20
222.992278818258
 30
0.0
 11
114.2426892554694
 21
222.992278818258
 31
0.0
  0
LINE
  5
221
330
1F
100
AcDbEntity
  8
1
  6
Continuous
 62
     4
100
AcDbLine
 10
111.9926892554694
 20
224.554778818258
 30
0.0
 11
112.6801892554694
 21
223.804778818258
 31
0.0
  0
LINE
  5
222
330
1F
100
AcDbEntity
  8
1
  6
Continuous
 62
     4
100
AcDbLine
 10
111.4301892554694
 20
225.492278818258
 30
0.0
 11
111.9926892554694
 21
224.554778818258
 31
0.0
  0
LINE
  5
223
330
1F
100
AcDbEntity
  8
1
  6
Continuous
 62
     4
100
AcDbLine
 10
110.9926892554694
 20
226.617278818258
 30
0.0
 11
111.4301892554694
 21
225.492278818258
 31
0.0
  0
LINE
  5
224
330
1F
100
AcDbEntity
  8
1
  6
Continuous
 62
     4
100
AcDbLine
 10
112.2426892554694
 20
226.742278818258
 30
0.0
 11
111.3051892554694
 21
225.992278818258
 31
0.0
  0
LINE
  5
225
330
1F
100
AcDbEntity
  8
1
  6
Continuous
 62
     4
100
AcDbLine
 10
110.6176892554694
 20
222.992278818258
 30
0.0
 11
110.1801892554694
 21
223.179778818258
 31
0.0
  0
LINE
  5
226
330
1F
100
AcDbEntity
  8
1
  6
Continuous
 62
     4
100
AcDbLine
 10
110.6176892554694
 20
227.867278818258
 30
0.0
 11
110.6176892554694
 21
222.992278818258
 31
0.0
  0
LINE
  5
227
330
1F
100
AcDbEntity
  8
1
  6
Continuous
 62
     4
100
AcDbLine
 10
109.9301892554694
 20
226.304778818258
 30
0.0
 11
108.4926892554694
 21
226.304778818258
 31
0.0
  0
LINE
  5
228
330
1F
100
AcDbEntity
  8
1
  6
Continuous
 62
     4
100
AcDbLine
 10
109.6176892554694
 20
225.367278818258
 30
0.0
 11
109.9301892554694
 21
226.304778818258
 31
0.0
  0
LINE
  5
229
330
1F
100
AcDbEntity
  8
1
  6
Continuous
 62
     4
100
AcDbLine
 10
109.0551892554694
 20
224.429778818258
 30
0.0
 11
109.6176892554694
 21
225.367278818258
 31
0.0
  0
LINE
  5
22A
330
1F
100
AcDbEntity
  8
1
  6
Continuous
 62
     4
100
AcDbLine
 10
108.4926892554694
 20
223.804778818258
 30
0.0
 11
109.0551892554694
 21
224.429778818258
 31
0.0
  0
LINE
  5
22B
330
1F
100
AcDbEntity
  8
1
  6
Continuous
 62
     4
100
AcDbLine
 10
105.7426892554694
 20
226.742278818258
 30
0.0
 11
105.7426892554694
 21
225.679778818258
 31
0.0
  0
LINE
  5
22C
330
1F
100
AcDbEntity
  8
1
  6
Continuous
 62
     4
100
AcDbLine
 10
105.7426892554694
 20
225.679778818258
 30
0.0
 11
105.7426892554694
 21
225.054778818258
 31
0.0
  0
LINE
  5
22D
330
1F
100
AcDbEntity
  8
1
  6
Continuous
 62
     4
100
AcDbLine
 10
106.5551892554694
 20
226.742278818258
 30
0.0
 11
106.5551892554694
 21
224.554778818258
 31
0.0
  0
LINE
  5
22E
330
1F
100
AcDbEntity
  8
1
  6
Continuous
 62
     4
100
AcDbLine
 10
106.5551892554694
 20
224.554778818258
 30
0.0
 11
106.5551892554694
 21
222.992278818258
 31
0.0
  0
LINE
  5
22F
330
1F
100
AcDbEntity
  8
1
  6
Continuous
 62
     4
100
AcDbLine
 10
106.5551892554694
 20
224.554778818258
 30
0.0
 11
107.6801892554694
 21
224.554778818258
 31
0.0
  0
LINE
  5
230
330
1F
100
AcDbEntity
  8
1
  6
Continuous
 62
     4
100
AcDbLine
 10
106.5551892554694
 20
227.867278818258
 30
0.0
 11
106.5551892554694
 21
226.742278818258
 31
0.0
  0
LINE
  5
231
330
1F
100
AcDbEntity
  8
1
  6
Continuous
 62
     4
100
AcDbLine
 10
107.5551892554694
 20
226.742278818258
 30
0.0
 11
106.5551892554694
 21
226.742278818258
 31
0.0
  0
LINE
  5
232
330
1F
100
AcDbEntity
  8
1
  6
Continuous
 62
     4
100
AcDbLine
 10
106.5551892554694
 20
225.679778818258
 30
0.0
 11
107.4301892554694
 21
225.679778818258
 31
0.0
  0
LINE
  5
233
330
1F
100
AcDbEntity
  8
1
  6
Continuous
 62
     4
100
AcDbLine
 10
104.9301892554694
 20
225.679778818258
 30
0.0
 11
105.7426892554694
 21
225.679778818258
 31
0.0
  0
LINE
  5
234
330
1F
100
AcDbEntity
  8
1
  6
Continuous
 62
     4
100
AcDbLine
 10
104.9301892554694
 20
224.242278818258
 30
0.0
 11
106.1801892554694
 21
224.867278818258
 31
0.0
  0
LINE
  5
235
330
1F
100
AcDbEntity
  8
1
  6
Continuous
 62
     4
100
AcDbLine
 10
105.3051892554694
 20
223.617278818258
 30
0.0
 11
104.9301892554694
 21
223.179778818258
 31
0.0
  0
LINE
  5
236
330
1F
100
AcDbEntity
  8
1
  6
Continuous
 62
     4
100
AcDbLine
 10
105.6176892554694
 20
224.242278818258
 30
0.0
 11
105.3051892554694
 21
223.617278818258
 31
0.0
  0
LINE
  5
237
330
1F
100
AcDbEntity
  8
1
  6
Continuous
 62
     4
100
AcDbLine
 10
105.7426892554694
 20
225.054778818258
 30
0.0
 11
105.6176892554694
 21
224.242278818258
 31
0.0
  0
LINE
  5
238
330
1F
100
AcDbEntity
  8
1
  6
Continuous
 62
     4
100
AcDbLine
 10
105.7426892554694
 20
227.867278818258
 30
0.0
 11
105.7426892554694
 21
226.742278818258
 31
0.0
  0
LINE
  5
239
330
1F
100
AcDbEntity
  8
1
  6
Continuous
 62
     4
100
AcDbLine
 10
104.9301892554694
 20
226.742278818258
 30
0.0
 11
105.7426892554694
 21
226.742278818258
 31
0.0
  0
LINE
  5
23A
330
1F
100
AcDbEntity
  8
1
  6
Continuous
 62
     4
100
AcDbLine
 10
103.2426892554694
 20
225.054778818258
 30
0.0
 11
104.6176892554694
 21
225.804778818258
 31
0.0
  0
LINE
  5
23B
330
1F
100
AcDbEntity
  8
1
  6
Continuous
 62
     4
100
AcDbLine
 10
104.6176892554694
 20
226.742278818258
 30
0.0
 11
103.2426892554694
 21
226.742278818258
 31
0.0
  0
LINE
  5
23C
330
1F
100
AcDbEntity
  8
1
  6
Continuous
 62
     4
100
AcDbLine
 10
104.2426892554694
 20
223.179778818258
 30
0.0
 11
104.2426892554694
 21
227.867278818258
 31
0.0
  0
LINE
  5
23D
330
1F
100
AcDbEntity
  8
1
  6
Continuous
 62
     4
100
AcDbLine
 10
103.8051892554694
 20
223.179778818258
 30
0.0
 11
104.2426892554694
 21
223.179778818258
 31
0.0
  0
LINE
  5
23E
330
1F
100
AcDbEntity
  8
1
  6
Continuous
 62
     4
100
AcDbLine
 10
100.3051892554694
 20
226.929778818258
 30
0.0
 11
100.3051892554694
 21
226.117278818258
 31
0.0
  0
LINE
  5
23F
330
1F
100
AcDbEntity
  8
1
  6
Continuous
 62
     4
100
AcDbLine
 10
101.9926892554694
 20
226.929778818258
 30
0.0
 11
101.9926892554694
 21
227.679778818258
 31
0.0
  0
LINE
  5
240
330
1F
100
AcDbEntity
  8
1
  6
Continuous
 62
     4
100
AcDbLine
 10
100.7426892554694
 20
225.679778818258
 30
0.0
 11
99.9301892554694
 21
225.679778818258
 31
0.0
  0
LINE
  5
241
330
1F
100
AcDbEntity
  8
1
  6
Continuous
 62
     4
100
AcDbLine
 10
101.1801892554694
 20
225.054778818258
 30
0.0
 11
101.8676892554694
 21
225.054778818258
 31
0.0
  0
LINE
  5
242
330
1F
100
AcDbEntity
  8
1
  6
Continuous
 62
     4
100
AcDbLine
 10
101.8676892554694
 20
225.054778818258
 30
0.0
 11
102.5551892554694
 21
225.054778818258
 31
0.0
  0
LINE
  5
243
330
1F
100
AcDbEntity
  8
1
  6
Continuous
 62
     4
100
AcDbLine
 10
101.8676892554694
 20
222.992278818258
 30
0.0
 11
101.4301892554694
 21
222.992278818258
 31
0.0
  0
LINE
  5
244
330
1F
100
AcDbEntity
  8
1
  6
Continuous
 62
     4
100
AcDbLine
 10
102.2426892554694
 20
223.929778818258
 30
0.0
 11
101.8676892554694
 21
222.992278818258
 31
0.0
  0
LINE
  5
245
330
1F
100
AcDbEntity
  8
1
  6
Continuous
 62
     4
100
AcDbLine
 10
102.5551892554694
 20
225.054778818258
 30
0.0
 11
102.2426892554694
 21
223.929778818258
 31
0.0
  0
LINE
  5
246
330
1F
100
AcDbEntity
  8
1
  6
Continuous
 62
     4
100
AcDbLine
 10
100.3051892554694
 20
225.054778818258
 30
0.0
 11
101.1801892554694
 21
225.054778818258
 31
0.0
  0
LINE
  5
247
330
1F
100
AcDbEntity
  8
1
  6
Continuous
 62
     4
100
AcDbLine
 10
101.3051892554694
 20
223.929778818258
 30
0.0
 11
100.6176892554694
 21
223.179778818258
 31
0.0
  0
LINE
  5
248
330
1F
100
AcDbEntity
  8
1
  6
Continuous
 62
     4
100
AcDbLine
 10
101.8676892554694
 20
225.054778818258
 30
0.0
 11
101.3051892554694
 21
223.929778818258
 31
0.0
  0
LINE
  5
249
330
1F
100
AcDbEntity
  8
1
  6
Continuous
 62
     4
100
AcDbLine
 10
100.7426892554694
 20
224.242278818258
 30
0.0
 11
101.1801892554694
 21
225.054778818258
 31
0.0
  0
LINE
  5
24A
330
1F
100
AcDbEntity
  8
1
  6
Continuous
 62
     4
100
AcDbLine
 10
100.1801892554694
 20
223.617278818258
 30
0.0
 11
100.7426892554694
 21
224.242278818258
 31
0.0
  0
LINE
  5
24B
330
1F
100
AcDbEntity
  8
1
  6
Continuous
 62
     4
100
AcDbLine
 10
100.7426892554694
 20
225.679778818258
 30
0.0
 11
99.7426892554694
 21
224.242278818258
 31
0.0
  0
LINE
  5
24C
330
1F
100
AcDbEntity
  8
1
  6
Continuous
 62
     4
100
AcDbLine
 10
102.6801892554694
 20
225.679778818258
 30
0.0
 11
100.7426892554694
 21
225.679778818258
 31
0.0
  0
LINE
  5
24D
330
1F
100
AcDbEntity
  8
1
  6
Continuous
 62
     4
100
AcDbLine
 10
100.3051892554694
 20
226.929778818258
 30
0.0
 11
101.9926892554694
 21
226.929778818258
 31
0.0
  0
LINE
  5
24E
330
1F
100
AcDbEntity
  8
1
  6
Continuous
 62
     4
100
AcDbLine
 10
101.9926892554694
 20
227.679778818258
 30
0.0
 11
100.3051892554694
 21
227.679778818258
 31
0.0
  0
LINE
  5
24F
330
1F
100
AcDbEntity
  8
1
  6
Continuous
 62
     4
100
AcDbLine
 10
101.9926892554694
 20
226.117278818258
 30
0.0
 11
101.9926892554694
 21
226.929778818258
 31
0.0
  0
LINE
  5
250
330
1F
100
AcDbEntity
  8
1
  6
Continuous
 62
     4
100
AcDbLine
 10
100.3051892554694
 20
226.117278818258
 30
0.0
 11
101.9926892554694
 21
226.117278818258
 31
0.0
  0
LINE
  5
251
330
1F
100
AcDbEntity
  8
1
  6
Continuous
 62
     4
100
AcDbLine
 10
100.3051892554694
 20
227.679778818258
 30
0.0
 11
100.3051892554694
 21
226.929778818258
 31
0.0
  0
LINE
  5
252
330
1F
100
AcDbEntity
  8
1
  6
Continuous
 62
     4
100
AcDbLine
 10
99.2426892554694
 20
227.054778818258
 30
0.0
 11
98.8051892554694
 21
227.679778818258
 31
0.0
  0
LINE
  5
253
330
1F
100
AcDbEntity
  8
1
  6
Continuous
 62
     4
100
AcDbLine
 10
98.8051892554694
 20
225.679778818258
 30
0.0
 11
98.3676892554694
 21
226.304778818258
 31
0.0
  0
LINE
  5
254
330
1F
100
AcDbEntity
  8
1
  6
Continuous
 62
     4
100
AcDbLine
 10
98.4926892554694
 20
223.179778818258
 30
0.0
 11
99.3676892554694
 21
225.054778818258
 31
0.0
  0
LINE
  5
255
330
1F
100
AcDbEntity
  8
1
  6
Continuous
 62
     4
100
AcDbLine
 10
96.9926892554694
 20
224.554778818258
 30
0.0
 11
95.4926892554694
 21
224.554778818258
 31
0.0
  0
LINE
  5
256
330
1F
100
AcDbEntity
  8
1
  6
Continuous
 62
     4
100
AcDbLine
 10
96.9926892554694
 20
222.992278818258
 30
0.0
 11
96.9926892554694
 21
224.554778818258
 31
0.0
  0
LINE
  5
257
330
1F
100
AcDbEntity
  8
1
  6
Continuous
 62
     4
100
AcDbLine
 10
95.4926892554694
 20
222.992278818258
 30
0.0
 11
96.9926892554694
 21
222.992278818258
 31
0.0
  0
LINE
  5
258
330
1F
100
AcDbEntity
  8
1
  6
Continuous
 62
     4
100
AcDbLine
 10
95.4926892554694
 20
224.554778818258
 30
0.0
 11
95.4926892554694
 21
222.992278818258
 31
0.0
  0
LINE
  5
259
330
1F
100
AcDbEntity
  8
1
  6
Continuous
 62
     4
100
AcDbLine
 10
96.9926892554694
 20
225.679778818258
 30
0.0
 11
95.4926892554694
 21
225.679778818258
 31
0.0
  0
LINE
  5
25A
330
1F
100
AcDbEntity
  8
1
  6
Continuous
 62
     4
100
AcDbLine
 10
96.8676892554694
 20
226.742278818258
 30
0.0
 11
97.6801892554694
 21
225.804778818258
 31
0.0
  0
LINE
  5
25B
330
1F
100
AcDbEntity
  8
1
  6
Continuous
 62
     4
100
AcDbLine
 10
96.1801892554694
 20
227.679778818258
 30
0.0
 11
96.8676892554694
 21
226.742278818258
 31
0.0
  0
LINE
  5
25C
330
1F
100
AcDbEntity
  8
1
  6
Continuous
 62
     4
100
AcDbLine
 10
95.6176892554694
 20
226.617278818258
 30
0.0
 11
96.1801892554694
 21
227.679778818258
 31
0.0
  0
LINE
  5
25D
330
1F
100
AcDbEntity
  8
1
  6
Continuous
 62
     4
100
AcDbLine
 10
94.9301892554694
 20
225.679778818258
 30
0.0
 11
95.6176892554694
 21
226.617278818258
 31
0.0
  0
LINE
  5
25E
330
1F
100
AcDbEntity
  8
1
  6
Continuous
 62
     4
100
AcDbLine
 10
93.6801892554694
 20
226.304778818258
 30
0.0
 11
94.2426892554694
 21
227.679778818258
 31
0.0
  0
LINE
  5
25F
330
1F
100
AcDbEntity
  8
1
  6
Continuous
 62
     4
100
AcDbLine
 10
94.2426892554694
 20
225.804778818258
 30
0.0
 11
93.3676892554694
 21
226.617278818258
 31
0.0
  0
LINE
  5
260
330
1F
100
AcDbEntity
  8
1
  6
Continuous
 62
     4
100
AcDbLine
 10
93.8051892554694
 20
225.054778818258
 30
0.0
 11
94.7426892554694
 21
227.054778818258
 31
0.0
  0
LINE
  5
261
330
1F
100
AcDbEntity
  8
1
  6
Continuous
 62
     4
100
AcDbLine
 10
94.2426892554694
 20
222.992278818258
 30
0.0
 11
94.2426892554694
 21
225.054778818258
 31
0.0
  0
LINE
  5
262
330
1F
100
AcDbEntity
  8
1
  6
Continuous
 62
     4
100
AcDbLine
 10
94.6176892554694
 20
224.554778818258
 30
0.0
 11
94.7426892554694
 21
223.617278818258
 31
0.0
  0
LINE
  5
263
330
1F
100
AcDbEntity
  8
1
  6
Continuous
 62
     4
100
AcDbLine
 10
94.4926892554694
 20
225.679778818258
 30
0.0
 11
95.0551892554694
 21
224.867278818258
 31
0.0
  0
LINE
  5
264
330
1F
100
AcDbEntity
  8
1
  6
Continuous
 62
     4
100
AcDbLine
 10
93.3676892554694
 20
224.867278818258
 30
0.0
 11
94.7426892554694
 21
225.179778818258
 31
0.0
  0
LINE
  5
265
330
1F
100
AcDbEntity
  8
1
  6
Continuous
 62
     4
100
AcDbLine
 10
93.6801892554694
 20
223.804778818258
 30
0.0
 11
93.8051892554694
 21
224.429778818258
 31
0.0
  0
LINE
  5
266
330
1F
100
AcDbEntity
  8
1
  6
Continuous
 62
     4
100
AcDbLine
 10
93.4926892554694
 20
223.304778818258
 30
0.0
 11
93.6801892554694
 21
223.804778818258
 31
0.0
  0
LINE
  5
27F
330
1F
100
AcDbEntity
  8
1
  6
Continuous
 62
     4
100
AcDbLine
 10
70.8613461032639
 20
247.043077530907
 30
0.0
 11
74.2259337877272
 21
240.045355186418
 31
0.0
  0
LINE
  5
280
330
1F
100
AcDbEntity
  8
1
  6
Continuous
 62
     4
100
AcDbLine
 10
70.8613461032639
 20
247.043077530907
 30
0.0
 11
77.2740256835139
 21
242.665166054181
 31
0.0
  0
LINE
  5
281
330
1F
100
AcDbEntity
  8
1
  6
Continuous
 62
     4
100
AcDbLine
 10
75.0539365707634
 20
60.2795644966727
 30
0.0
 11
81.052888277725
 21
65.2091838242218
 31
0.0
  0
LINE
  5
282
330
1F
100
AcDbEntity
  8
1
  6
Continuous
 62
     4
100
AcDbLine
 10
75.0539365707634
 20
60.2795644966727
 30
0.0
 11
77.7843714812936
 21
67.5482159187977
 31
0.0
  0
LINE
  5
283
330
1F
100
AcDbEntity
  8
1
  6
Continuous
 62
     4
100
AcDbLine
 10
81.1753104894011
 20
-13.1
 30
0.0
 11
83.9962603926366
 21
-20.3340037282571
 31
0.0
  0
LINE
  5
284
330
1F
100
AcDbEntity
  8
1
  6
Continuous
 62
     4
100
AcDbLine
 10
81.1753104894011
 20
-13.1
 30
0.0
 11
87.2353266325349
 21
-17.9543560481243
 31
0.0
  0
LINE
  5
285
330
1F
100
AcDbEntity
  8
1
  6
Continuous
 62
     4
100
AcDbLine
 10
-81.9360057963882
 20
-13.1
 30
0.0
 11
-88.247892140243
 21
-17.6220193585678
 31
0.0
  0
LINE
  5
286
330
1F
100
AcDbEntity
  8
1
  6
Continuous
 62
     4
100
AcDbLine
 10
-81.9360057963882
 20
-13.1
 30
0.0
 11
-85.1412500366826
 21
-20.1721268128521
 31
0.0
  0
LINE
  5
287
330
1F
100
AcDbEntity
  8
1
  6
Continuous
 62
     4
100
AcDbLine
 10
-75.0539365707634
 20
79.2795644966727
 30
0.0
 11
-77.7843714812936
 21
86.5482159187978
 31
0.0
  0
LINE
  5
288
330
1F
100
AcDbEntity
  8
1
  6
Continuous
 62
     4
100
AcDbLine
 10
-75.0539365707634
 20
79.2795644966727
 30
0.0
 11
-81.052888277725
 21
84.2091838242218
 31
0.0
  0
LINE
  5
289
330
1F
100
AcDbEntity
  8
1
  6
Continuous
 62
     4
100
AcDbLine
 10
10.3027883106762
 20
-87.3107740583539
 30
0.0
 11
14.5770553505464
 21
-93.7929966377539
 31
0.0
  0
LINE
  5
28A
330
1F
100
AcDbEntity
  8
1
  6
Continuous
 62
     4
100
AcDbLine
 10
10.3027883106762
 20
-87.3107740583539
 30
0.0
 11
17.2455234394622
 21
-90.7874099651643
 31
0.0
  0
LINE
  5
28B
330
1F
100
AcDbEntity
  8
1
  6
Continuous
 62
     3
100
AcDbLine
 10
10.3120447408615
 20
97.4999999999998
 30
0.0
 11
10.3120447408615
 21
78.4999998288295
 31
0.0
  0
LINE
  5
28C
330
1F
100
AcDbEntity
  8
1
  6
Continuous
 62
     3
100
AcDbLine
 10
7.0887234393789
 20
97.4999999999998
 30
0.0
 11
7.0887234393789
 21
78.4999998475536
 31
0.0
  0
LINE
  5
28D
330
1F
100
AcDbEntity
  8
1
  6
Continuous
 62
     3
100
AcDbLine
 10
-7.0887234393789
 20
97.4999999999998
 30
0.0
 11
-7.0887234393789
 21
78.4999999299096
 31
0.0
  0
LINE
  5
28E
330
1F
100
AcDbEntity
  8
1
  6
Continuous
 62
     3
100
AcDbLine
 10
-10.3120447408616
 20
97.4999999999998
 30
0.0
 11
-10.3120447408616
 21
78.4999999486338
 31
0.0
  0
LINE
  5
28F
330
1F
100
AcDbEntity
  8
1
  6
Continuous
 62
     3
100
AcDbLine
 10
-10.3120447408616
 20
97.4999999999998
 30
0.0
 11
-7.0887234393789
 21
97.4999999999998
 31
0.0
  0
LINE
  5
290
330
1F
100
AcDbEntity
  8
1
  6
Continuous
 62
     3
100
AcDbLine
 10
10.3120447408615
 20
97.4999999999998
 30
0.0
 11
7.0887234393789
 21
97.4999999999998
 31
0.0
  0
LINE
  5
291
330
1F
100
AcDbEntity
  8
1
  6
Continuous
 62
     3
100
AcDbLine
 10
15.5
 20
99.4999999999998
 30
0.0
 11
17.5
 21
97.4999999999998
 31
0.0
  0
LINE
  5
292
330
1F
100
AcDbEntity
  8
1
  6
Continuous
 62
     3
100
AcDbLine
 10
-15.5
 20
99.4999999999998
 30
0.0
 11
-17.5
 21
97.4999999999998
 31
0.0
  0
LINE
  5
293
330
1F
100
AcDbEntity
  8
100
  6
Continuous
 62
     3
100
AcDbLine
 10
-17.5
 20
97.4999999999998
 30
0.0
 11
-17.5
 21
78.4999999903882
 31
0.0
  0
LINE
  5
294
330
1F
100
AcDbEntity
  8
100
  6
Continuous
 62
     3
100
AcDbLine
 10
17.5
 20
97.4999999999998
 30
0.0
 11
17.5
 21
78.499999787075
 31
0.0
  0
LINE
  5
295
330
1F
100
AcDbEntity
  8
100
  6
Continuous
 62
     3
100
AcDbLine
 10
-15.5
 20
99.4999999999998
 30
0.0
 11
15.5
 21
99.4999999999998
 31
0.0
  0
LINE
  5
296
330
1F
100
AcDbEntity
  8
3
  6
Continuous
 62
     3
100
AcDbLine
 10
8.94892917243919
 20
-55.1155958391054
 30
0.0
 11
8.94892917243919
 21
-39.8844041608936
 31
0.0
  0
LINE
  5
297
330
1F
100
AcDbEntity
  8
3
  6
Continuous
 62
     3
100
AcDbLine
 10
-13.0999999999998
 20
-38.4999999999994
 30
0.0
 11
-13.0999999999998
 21
-34.4999999999994
 31
0.0
  0
LINE
  5
298
330
1F
100
AcDbEntity
  8
3
  6
DOTTED
 62
     4
100
AcDbLine
 10
-13.0999999999998
 20
-47.9999999999994
 30
0.0
 11
-13.0999999999998
 21
-38.4999999999994
 31
0.0
  0
LINE
  5
299
330
1F
100
AcDbEntity
  8
3
  6
DOTTED
 62
     4
100
AcDbLine
 10
13.0999999999995
 20
-38.4999999999994
 30
0.0
 11
13.0999999999995
 21
-47.9999999999994
 31
0.0
  0
LINE
  5
29A
330
1F
100
AcDbEntity
  8
3
  6
Continuous
 62
     3
100
AcDbLine
 10
13.0999999999995
 20
-34.4999999999994
 30
0.0
 11
13.0999999999995
 21
-38.4999999999994
 31
0.0
  0
LINE
  5
29B
330
1F
100
AcDbEntity
  8
3
  6
Continuous
 62
     3
100
AcDbLine
 10
-12.5140056393126
 20
27.0
 30
0.0
 11
-12.5140056393126
 21
19.0115796515653
 31
0.0
  0
LINE
  5
29C
330
1F
100
AcDbEntity
  8
3
  6
PHANTOM
 62
     6
100
AcDbLine
 10
-31.0
 20
140.5
 30
0.0
 11
-31.0
 21
150.544738518464
 31
0.0
  0
LINE
  5
29D
330
1F
100
AcDbEntity
  8
3
  6
PHANTOM
 62
     6
100
AcDbLine
 10
-26.7440173077683
 20
156.2856795241
 30
0.0
 11
-12.8713538180096
 21
160.5
 31
0.0
  0
LINE
  5
29E
330
1F
100
AcDbEntity
  8
3
  6
Continuous
 62
     3
100
AcDbLine
 10
7.79422863406
 20
103.0
 30
0.0
 11
7.79422863406
 21
117.0
 31
0.0
  0
LINE
  5
29F
330
1F
100
AcDbEntity
  8
3
  6
Continuous
 62
     3
100
AcDbLine
 10
-7.79422863405989
 20
103.0
 30
0.0
 11
-7.79422863405989
 21
117.0
 31
0.0
  0
LINE
  5
2A0
330
1F
100
AcDbEntity
  8
3
  6
Continuous
 62
     3
100
AcDbLine
 10
-15.5884572681198
 20
103.0
 30
0.0
 11
-15.5884572681198
 21
117.0
 31
0.0
  0
LINE
  5
2A1
330
1F
100
AcDbEntity
  8
3
  6
Continuous
 62
     3
100
AcDbLine
 10
15.5884572681194
 20
103.0
 30
0.0
 11
15.5884572681194
 21
117.0
 31
0.0
  0
LINE
  5
2A2
330
1F
100
AcDbEntity
  8
3
  6
Continuous
 62
     3
100
AcDbLine
 10
9.0
 20
133.0
 30
0.0
 11
9.0
 21
126.400073201234
 31
0.0
  0
LINE
  5
2A3
330
1F
100
AcDbEntity
  8
3
  6
Continuous
 62
     3
100
AcDbLine
 10
9.0
 20
133.0
 30
0.0
 11
-9.0
 21
133.0
 31
0.0
  0
LINE
  5
2A4
330
1F
100
AcDbEntity
  8
3
  6
Continuous
 62
     3
100
AcDbLine
 10
-12.0585
 20
-36.3039309160824
 30
0.0
 11
-12.0585
 21
-38.4999999999994
 31
0.0
  0
LINE
  5
2A5
330
1F
100
AcDbEntity
  8
3
  6
Continuous
 62
     3
100
AcDbLine
 10
12.0584999999994
 20
-36.3039309160824
 30
0.0
 11
12.0584999999994
 21
-38.4999999999994
 31
0.0
  0
LINE
  5
2A6
330
1F
100
AcDbEntity
  8
3
  6
Continuous
 62
     3
100
AcDbLine
 10
16.9999999999994
 20
-34.4999999999994
 30
0.0
 11
18.4999999999994
 21
-32.9999999999994
 31
0.0
  0
LINE
  5
2A7
330
1F
100
AcDbEntity
  8
3
  6
Continuous
 62
     3
100
AcDbLine
 10
-17.0
 20
-34.4999999999994
 30
0.0
 11
16.9999999999994
 21
-34.4999999999994
 31
0.0
  0
LINE
  5
2A8
330
1F
100
AcDbEntity
  8
3
  6
Continuous
 62
     3
100
AcDbLine
 10
-18.5
 20
-32.9999999999994
 30
0.0
 11
-17.0
 21
-34.4999999999994
 31
0.0
  0
LINE
  5
2A9
330
1F
100
AcDbEntity
  8
3
  6
Continuous
 62
     3
100
AcDbLine
 10
-18.5
 20
-23.4999999999994
 30
0.0
 11
-18.5
 21
-32.9999999999994
 31
0.0
  0
LINE
  5
2AA
330
1F
100
AcDbEntity
  8
3
  6
Continuous
 62
     3
100
AcDbLine
 10
-17.0
 20
-21.9999999999994
 30
0.0
 11
-18.5
 21
-23.4999999999994
 31
0.0
  0
LINE
  5
2AB
330
1F
100
AcDbEntity
  8
3
  6
Continuous
 62
     3
100
AcDbLine
 10
16.9999999999994
 20
-21.9999999999994
 30
0.0
 11
-17.0
 21
-21.9999999999994
 31
0.0
  0
LINE
  5
2AC
330
1F
100
AcDbEntity
  8
3
  6
Continuous
 62
     3
100
AcDbLine
 10
18.4999999999994
 20
-23.4999999999994
 30
0.0
 11
16.9999999999994
 21
-21.9999999999994
 31
0.0
  0
LINE
  5
2AD
330
1F
100
AcDbEntity
  8
3
  6
Continuous
 62
     3
100
AcDbLine
 10
18.4999999999994
 20
-32.9999999999994
 30
0.0
 11
18.4999999999994
 21
-23.4999999999994
 31
0.0
  0
LINE
  5
2AE
330
1F
100
AcDbEntity
  8
3
  6
DOTTED
 62
     4
100
AcDbLine
 10
13.0999999999995
 20
-47.9999999999994
 30
0.0
 11
-13.0999999999998
 21
-47.9999999999994
 31
0.0
  0
LINE
  5
2AF
330
1F
100
AcDbEntity
  8
3
  6
Continuous
 62
     3
100
AcDbLine
 10
-13.0999999999998
 20
-36.3039309160824
 30
0.0
 11
13.0999999999995
 21
-36.3039309160824
 31
0.0
  0
LINE
  5
2B0
330
1F
100
AcDbEntity
  8
3
  6
Continuous
 62
     3
100
AcDbLine
 10
-14.188
 20
-21.9999999999994
 30
0.0
 11
-14.188
 21
-21.8880193905161
 31
0.0
  0
LINE
  5
2B1
330
1F
100
AcDbEntity
  8
3
  6
Continuous
 62
     3
100
AcDbLine
 10
-13.1547005383792
 20
-5.0
 30
0.0
 11
-10.8452994616207
 21
-1.0
 31
0.0
  0
LINE
  5
2B2
330
1F
100
AcDbEntity
  8
3
  6
Continuous
 62
     3
100
AcDbLine
 10
-3.91709623134511
 20
-5.0
 30
0.0
 11
-13.1547005383792
 21
-5.0
 31
0.0
  0
LINE
  5
2B3
330
1F
100
AcDbEntity
  8
3
  6
Continuous
 62
     3
100
AcDbLine
 10
13.9999999999994
 20
27.0
 30
0.0
 11
-14.0
 21
27.0
 31
0.0
  0
LINE
  5
2B4
330
1F
100
AcDbEntity
  8
3
  6
Continuous
 62
     3
100
AcDbLine
 10
-16.0
 20
40.4999999999839
 30
0.0
 11
-16.0
 21
29.0
 31
0.0
  0
LINE
  5
2B5
330
1F
100
AcDbEntity
  8
3
  6
Continuous
 62
     3
100
AcDbLine
 10
15.9999999999994
 20
40.4999999999984
 30
0.0
 11
15.9999999999994
 21
29.0
 31
0.0
  0
LINE
  5
2B6
330
1F
100
AcDbEntity
  8
3
  6
Continuous
 62
     3
100
AcDbLine
 10
12.5
 20
27.0
 30
0.0
 11
12.5
 21
19.301127018922
 31
0.0
  0
LINE
  5
2B7
330
1F
100
AcDbEntity
  8
3
  6
Continuous
 62
     3
100
AcDbLine
 10
-16.0
 20
103.0
 30
0.0
 11
15.9999999999994
 21
103.0
 31
0.0
  0
LINE
  5
2B8
330
1F
100
AcDbEntity
  8
3
  6
Continuous
 62
     3
100
AcDbLine
 10
16.9999999999994
 20
100.5
 30
0.0
 11
16.9999999999994
 21
102.0
 31
0.0
  0
LINE
  5
2B9
330
1F
100
AcDbEntity
  8
3
  6
Continuous
 62
     3
100
AcDbLine
 10
15.9999999999994
 20
99.4999999999998
 30
0.0
 11
16.9999999999994
 21
100.5
 31
0.0
  0
LINE
  5
2BA
330
1F
100
AcDbEntity
  8
3
  6
Continuous
 62
     3
100
AcDbLine
 10
-17.0
 20
100.5
 30
0.0
 11
-17.0
 21
102.0
 31
0.0
  0
LINE
  5
2BB
330
1F
100
AcDbEntity
  8
3
  6
Continuous
 62
     3
100
AcDbLine
 10
-16.0
 20
99.4999999999998
 30
0.0
 11
-17.0
 21
100.5
 31
0.0
  0
LINE
  5
2BC
330
1F
100
AcDbEntity
  8
3
  6
Continuous
 62
     3
100
AcDbLine
 10
-11.0738019845039
 20
-32.9999999999994
 30
0.0
 11
-11.0738019845039
 21
-23.4999999999994
 31
0.0
  0
LINE
  5
2BD
330
1F
100
AcDbEntity
  8
3
  6
Continuous
 62
     3
100
AcDbLine
 10
-7.29725975966309
 20
-32.9999999999994
 30
0.0
 11
-7.29725975966309
 21
-23.4999999999994
 31
0.0
  0
LINE
  5
2BE
330
1F
100
AcDbEntity
  8
3
  6
Continuous
 62
     3
100
AcDbLine
 10
7.29725975966321
 20
-32.9999999999994
 30
0.0
 11
7.29725975966321
 21
-23.4999999999994
 31
0.0
  0
LINE
  5
2BF
330
1F
100
AcDbEntity
  8
3
  6
Continuous
 62
     3
100
AcDbLine
 10
11.0738019845035
 20
-32.9999999999994
 30
0.0
 11
11.0738019845035
 21
-23.4999999999994
 31
0.0
  0
LINE
  5
2C0
330
1F
100
AcDbEntity
  8
3
  6
Continuous
 62
     3
100
AcDbLine
 10
-31.0
 20
151.0
 30
0.0
 11
-31.0
 21
161.044738518464
 31
0.0
  0
LINE
  5
2C1
330
1F
100
AcDbEntity
  8
3
  6
Continuous
 62
     3
100
AcDbLine
 10
-26.7440173077682
 20
166.7856795241
 30
0.0
 11
-12.8713538180096
 21
171.0
 31
0.0
  0
LINE
  5
2C2
330
1F
100
AcDbEntity
  8
3
  6
PHANTOM
 62
     6
100
AcDbLine
 10
12.8713538180104
 20
160.5
 30
0.0
 11
-12.8713538180096
 21
160.5
 31
0.0
  0
LINE
  5
2C3
330
1F
100
AcDbEntity
  8
3
  6
PHANTOM
 62
     6
100
AcDbLine
 10
26.7440173077674
 20
156.2856795241
 30
0.0
 11
12.8713538180104
 21
160.5
 31
0.0
  0
LINE
  5
2C4
330
1F
100
AcDbEntity
  8
3
  6
PHANTOM
 62
     6
100
AcDbLine
 10
30.9999999999994
 20
140.5
 30
0.0
 11
30.9999999999994
 21
150.544738518464
 31
0.0
  0
LINE
  5
2C5
330
1F
100
AcDbEntity
  8
3
  6
PHANTOM
 62
     6
100
AcDbLine
 10
-31.0
 20
140.5
 30
0.0
 11
30.9999999999994
 21
140.5
 31
0.0
  0
LINE
  5
2C6
330
1F
100
AcDbEntity
  8
3
  6
Continuous
 62
     3
100
AcDbLine
 10
12.8713538180104
 20
171.0
 30
0.0
 11
-12.8713538180096
 21
171.0
 31
0.0
  0
LINE
  5
2C7
330
1F
100
AcDbEntity
  8
3
  6
Continuous
 62
     3
100
AcDbLine
 10
26.7440173077674
 20
166.7856795241
 30
0.0
 11
12.8713538180104
 21
171.0
 31
0.0
  0
LINE
  5
2C8
330
1F
100
AcDbEntity
  8
3
  6
Continuous
 62
     3
100
AcDbLine
 10
30.9999999999994
 20
151.0
 30
0.0
 11
30.9999999999994
 21
161.044738518464
 31
0.0
  0
LINE
  5
2C9
330
1F
100
AcDbEntity
  8
3
  6
Continuous
 62
     3
100
AcDbLine
 10
-31.0
 20
151.0
 30
0.0
 11
30.9999999999994
 21
151.0
 31
0.0
  0
LINE
  5
2CA
330
1F
100
AcDbEntity
  8
3
  6
Continuous
 62
     3
100
AcDbLine
 10
-4.40000000000001
 20
151.0
 30
0.0
 11
-4.40000000000003
 21
133.0
 31
0.0
  0
LINE
  5
2CB
330
1F
100
AcDbEntity
  8
3
  6
Continuous
 62
     3
100
AcDbLine
 10
-16.0
 20
99.4999999999998
 30
0.0
 11
15.9999999999994
 21
99.4999999999998
 31
0.0
  0
LINE
  5
2CC
330
1F
100
AcDbEntity
  8
3
  6
Continuous
 62
     3
100
AcDbLine
 10
10.4999999999994
 20
-80.9999999999994
 30
0.0
 11
-10.5
 21
-80.9999999999994
 31
0.0
  0
LINE
  5
2CD
330
1F
100
AcDbEntity
  8
3
  6
Continuous
 62
     3
100
AcDbLine
 10
10.0312500000003
 20
-95.9999999999994
 30
0.0
 11
-10.0312499999998
 21
-95.9999999999994
 31
0.0
  0
LINE
  5
2CE
330
1F
100
AcDbEntity
  8
3
  6
Continuous
 62
     3
100
AcDbLine
 10
-9.33856696758679
 20
-80.9637052177366
 30
0.0
 11
-8.86981696758679
 21
-95.9637052177366
 31
0.0
  0
LINE
  5
2CF
330
1F
100
AcDbEntity
  8
3
  6
Continuous
 62
     3
100
AcDbLine
 10
-10.5
 20
-80.9999999999994
 30
0.0
 11
-10.0312499999998
 21
-95.9999999999994
 31
0.0
  0
LINE
  5
2D0
330
1F
100
AcDbEntity
  8
3
  6
Continuous
 62
     3
100
AcDbLine
 10
-10.5
 20
-56.4999999999994
 30
0.0
 11
-10.5
 21
-80.9999999999994
 31
0.0
  0
LINE
  5
2D1
330
1F
100
AcDbEntity
  8
3
  6
Continuous
 62
     3
100
AcDbLine
 10
-15.5
 20
-56.4999999999994
 30
0.0
 11
-17.8978583448784
 21
-55.1155958391054
 31
0.0
  0
LINE
  5
2D2
330
1F
100
AcDbEntity
  8
3
  6
Continuous
 62
     3
100
AcDbLine
 10
-17.8978583448784
 20
-55.1155958391054
 30
0.0
 11
-17.8978583448784
 21
-39.8844041608936
 31
0.0
  0
LINE
  5
2D3
330
1F
100
AcDbEntity
  8
3
  6
DOT_CENTER
 62
     1
100
AcDbLine
 10
-93.9999999999994
 20
0.0
 30
0.0
 11
93.9999999999994
 21
0.0
 31
0.0
  0
LINE
  5
2D4
330
1F
100
AcDbEntity
  8
3
  6
DOT_CENTER
 62
     1
100
AcDbLine
 10
0.0
 20
-98.9999999999994
 30
0.0
 11
0.0
 21
174.0
 31
0.0
  0
LINE
  5
2D5
330
1F
100
AcDbEntity
  8
3
  6
Continuous
 62
     3
100
AcDbLine
 10
-15.5
 20
-38.4999999999994
 30
0.0
 11
-17.8978583448784
 21
-39.8844041608936
 31
0.0
  0
LINE
  5
2D6
330
1F
100
AcDbEntity
  8
3
  6
Continuous
 62
     3
100
AcDbLine
 10
15.4999999999994
 20
-38.4999999999994
 30
0.0
 11
17.8978583448794
 21
-39.8844041608936
 31
0.0
  0
LINE
  5
2D7
330
1F
100
AcDbEntity
  8
3
  6
Continuous
 62
     3
100
AcDbLine
 10
17.8978583448794
 20
-55.1155958391054
 30
0.0
 11
17.8978583448794
 21
-39.8844041608936
 31
0.0
  0
LINE
  5
2D8
330
1F
100
AcDbEntity
  8
3
  6
Continuous
 62
     3
100
AcDbLine
 10
10.4999999999994
 20
-80.9999999999994
 30
0.0
 11
10.0312500000003
 21
-95.9999999999994
 31
0.0
  0
LINE
  5
2D9
330
1F
100
AcDbEntity
  8
3
  6
Continuous
 62
     3
100
AcDbLine
 10
9.33856696758741
 20
-80.9637052177366
 30
0.0
 11
8.8698169675869
 21
-95.9637052177366
 31
0.0
  0
LINE
  5
2DA
330
1F
100
AcDbEntity
  8
3
  6
Continuous
 62
     3
100
AcDbLine
 10
10.4999999999994
 20
-56.4999999999994
 30
0.0
 11
10.4999999999994
 21
-80.9999999999994
 31
0.0
  0
LINE
  5
2DB
330
1F
100
AcDbEntity
  8
3
  6
Continuous
 62
     3
100
AcDbLine
 10
15.4999999999994
 20
-56.4999999999994
 30
0.0
 11
17.8978583448794
 21
-55.1155958391054
 31
0.0
  0
LINE
  5
2DC
330
1F
100
AcDbEntity
  8
0
  6
DOT_CENTER
 62
     1
100
AcDbLine
 10
86.0000004642838
 20
49.9999999999998
 30
0.0
 11
-22.99999999999
 21
49.9999999999998
 31
0.0
  0
LINE
  5
2DD
330
1F
100
AcDbEntity
  8
0
  6
Continuous
 62
     3
100
AcDbLine
 10
-19.7698986982689
 20
59.4999997738893
 30
0.0
 11
19.1546152091556
 21
59.4999999999998
 31
0.0
  0
LINE
  5
2DE
330
1F
100
AcDbEntity
  8
0
  6
Continuous
 62
     3
100
AcDbLine
 10
-19.9999999999628
 20
40.4999999999821
 30
0.0
 11
-20.0000000000173
 21
59.4999999950894
 31
0.0
  0
LINE
  5
2DF
330
1F
100
AcDbEntity
  8
0
  6
Continuous
 62
     3
100
AcDbLine
 10
-19.9999999999628
 20
40.4999999999821
 30
0.0
 11
20.1111403396023
 21
40.5000000000003
 31
0.0
  0
LINE
  5
2E0
330
1F
100
AcDbEntity
  8
0
  6
Continuous
 62
     3
100
AcDbLine
 10
24.9581210682409
 20
41.4999999488267
 30
0.0
 11
21.6000003845358
 21
41.500000052108
 31
0.0
  0
LINE
  5
2E1
330
1F
100
AcDbEntity
  8
0
  6
Continuous
 62
     3
100
AcDbLine
 10
24.9581210682409
 20
58.5000001063205
 30
0.0
 11
21.6000003095495
 21
58.4999998917363
 31
0.0
  0
LINE
  5
2E2
330
1F
100
AcDbEntity
  8
0
  6
Continuous
 62
     3
100
AcDbLine
 10
-21.6000003095523
 20
77.4999998917363
 30
0.0
 11
-24.9581210682409
 21
77.5000001063205
 31
0.0
  0
LINE
  5
2E3
330
1F
100
AcDbEntity
  8
0
  6
DOTTED
 62
     4
100
AcDbLine
 10
-35.0000004642839
 20
82.0999999999998
 30
0.0
 11
-26.2000004642839
 21
82.0999999999998
 31
0.0
  0
LINE
  5
2E4
330
1F
100
AcDbEntity
  8
0
  6
DOTTED
 62
     4
100
AcDbLine
 10
-35.0000004642839
 20
55.8999999999998
 30
0.0
 11
-26.2000004642839
 21
55.8999999999998
 31
0.0
  0
LINE
  5
2E5
330
1F
100
AcDbEntity
  8
0
  6
DOTTED
 62
     4
100
AcDbLine
 10
-35.0000004642839
 20
82.0999999999998
 30
0.0
 11
-35.0000004642839
 21
55.8999999999998
 31
0.0
  0
LINE
  5
2E6
330
1F
100
AcDbEntity
  8
0
  6
Continuous
 62
     3
100
AcDbLine
 10
-21.6000003845386
 20
60.500000052108
 30
0.0
 11
-24.9581210682409
 21
60.4999999488267
 31
0.0
  0
LINE
  5
2E7
330
1F
100
AcDbEntity
  8
0
  6
DOTTED
 62
     4
100
AcDbLine
 10
-25.5000004642839
 20
56.5759821423648
 30
0.0
 11
-26.2000004642839
 21
55.8999999999998
 31
0.0
  0
LINE
  5
2E8
330
1F
100
AcDbEntity
  8
0
  6
DOTTED
 62
     4
100
AcDbLine
 10
-25.5000004642839
 20
81.4240178576349
 30
0.0
 11
-26.2000004642839
 21
82.0999999999998
 31
0.0
  0
LINE
  5
2E9
330
1F
100
AcDbEntity
  8
0
  6
Continuous
 62
     3
100
AcDbLine
 10
-20.1111404793085
 20
78.4999999999998
 30
0.0
 11
-19.1546152091584
 21
78.4999999999998
 31
0.0
  0
LINE
  5
2EA
330
1F
100
AcDbEntity
  8
0
  6
Continuous
 62
     3
100
AcDbLine
 10
20.0000000000146
 20
78.4999997725527
 30
0.0
 11
19.99999999996
 21
59.5000002274269
 31
0.0
  0
LINE
  5
2EB
330
1F
100
AcDbEntity
  8
0
  6
Continuous
 62
     3
100
AcDbLine
 10
-19.1546152091584
 20
78.4999999999998
 30
0.0
 11
20.0000000000146
 21
78.4999997725527
 31
0.0
  0
LINE
  5
2EC
330
1F
100
AcDbEntity
  8
0
  6
DOT_CENTER
 62
     1
100
AcDbLine
 10
22.9999999999873
 20
68.9999999999998
 30
0.0
 11
-86.0000004642838
 21
68.9999999999998
 31
0.0
  0
LINE
  5
2ED
330
1F
100
AcDbEntity
  8
3
  6
Continuous
 62
     3
100
AcDbLine
 10
-83.0000004642838
 20
79.0312500000007
 30
0.0
 11
-83.0000004642838
 21
58.9687500000012
 31
0.0
  0
LINE
  5
2EE
330
1F
100
AcDbEntity
  8
3
  6
Continuous
 62
     3
100
AcDbLine
 10
-82.963705682022
 20
77.8698169675878
 30
0.0
 11
-67.963705682022
 21
78.3385669675878
 31
0.0
  0
LINE
  5
2EF
330
1F
100
AcDbEntity
  8
3
  6
Continuous
 62
     3
100
AcDbLine
 10
-26.8844046251778
 20
86.8978583448798
 30
0.0
 11
-42.1155963033899
 21
86.8978583448798
 31
0.0
  0
LINE
  5
2F0
330
1F
100
AcDbEntity
  8
3
  6
Continuous
 62
     3
100
AcDbLine
 10
-42.1155963033899
 20
86.8978583448798
 30
0.0
 11
-43.5000004642839
 21
84.4999999999998
 31
0.0
  0
LINE
  5
2F1
330
1F
100
AcDbEntity
  8
3
  6
Continuous
 62
     3
100
AcDbLine
 10
-26.8844046251778
 20
77.9489291724398
 30
0.0
 11
-42.1155963033899
 21
77.9489291724398
 31
0.0
  0
LINE
  5
2F2
330
1F
100
AcDbEntity
  8
3
  6
Continuous
 62
     3
100
AcDbLine
 10
-83.0000004642838
 20
58.9687500000012
 30
0.0
 11
-68.0000004642838
 21
58.4999999999998
 31
0.0
  0
LINE
  5
2F3
330
1F
100
AcDbEntity
  8
3
  6
Continuous
 62
     3
100
AcDbLine
 10
-82.963705682022
 20
60.1301830324138
 30
0.0
 11
-67.963705682022
 21
59.6614330324138
 31
0.0
  0
LINE
  5
2F4
330
1F
100
AcDbEntity
  8
3
  6
Continuous
 62
     3
100
AcDbLine
 10
-42.1155963033899
 20
51.1021416551218
 30
0.0
 11
-43.5000004642839
 21
53.4999999999998
 31
0.0
  0
LINE
  5
2F5
330
1F
100
AcDbEntity
  8
3
  6
Continuous
 62
     3
100
AcDbLine
 10
-26.8844046251778
 20
51.1021416551218
 30
0.0
 11
-42.1155963033899
 21
51.1021416551218
 31
0.0
  0
LINE
  5
2F6
330
1F
100
AcDbEntity
  8
3
  6
Continuous
 62
     3
100
AcDbLine
 10
-68.0000004642838
 20
58.4999999999998
 30
0.0
 11
-43.5000004642839
 21
58.4999999999998
 31
0.0
  0
LINE
  5
2F7
330
1F
100
AcDbEntity
  8
3
  6
Continuous
 62
     3
100
AcDbLine
 10
-26.8844046251778
 20
60.0510708275618
 30
0.0
 11
-42.1155963033899
 21
60.0510708275618
 31
0.0
  0
LINE
  5
2F8
330
1F
100
AcDbEntity
  8
3
  6
Continuous
 62
     3
100
AcDbLine
 10
-26.8844046251778
 20
86.8978583448798
 30
0.0
 11
-25.5000004642839
 21
84.4999999999998
 31
0.0
  0
LINE
  5
2F9
330
1F
100
AcDbEntity
  8
3
  6
Continuous
 62
     3
100
AcDbLine
 10
-26.8844046251778
 20
51.1021416551218
 30
0.0
 11
-25.5000004642839
 21
53.4999999999998
 31
0.0
  0
LINE
  5
2FA
330
1F
100
AcDbEntity
  8
3
  6
Continuous
 62
     3
100
AcDbLine
 10
-43.5000004642845
 20
79.4999999999998
 30
0.0
 11
-68.0000004642838
 21
79.4999999999998
 31
0.0
  0
LINE
  5
2FB
330
1F
100
AcDbEntity
  8
3
  6
Continuous
 62
     3
100
AcDbLine
 10
-68.0000004642838
 20
79.4999999999998
 30
0.0
 11
-83.0000004642838
 21
79.0312500000007
 31
0.0
  0
LINE
  5
2FC
330
1F
100
AcDbEntity
  8
3
  6
Continuous
 62
     3
100
AcDbLine
 10
-68.0000004642838
 20
58.4999999999998
 30
0.0
 11
-68.0000004642838
 21
79.4999999999998
 31
0.0
  0
LINE
  5
2FD
330
1F
100
AcDbEntity
  8
0
  6
Continuous
 62
     3
100
AcDbLine
 10
25.5000004642839
 20
62.4240178576349
 30
0.0
 11
24.9581210682409
 21
61.9007310075769
 31
0.0
  0
LINE
  5
2FE
330
1F
100
AcDbEntity
  8
0
  6
Continuous
 62
     3
100
AcDbLine
 10
25.5000004642839
 20
37.5759821423648
 30
0.0
 11
24.9581210682409
 21
38.0992689924227
 31
0.0
  0
LINE
  5
2FF
330
1F
100
AcDbEntity
  8
3
  6
Continuous
 62
     3
100
AcDbLine
 10
68.0000004642838
 20
60.4999999999998
 30
0.0
 11
68.0000004642838
 21
39.4999999999998
 31
0.0
  0
LINE
  5
300
330
1F
100
AcDbEntity
  8
3
  6
Continuous
 62
     3
100
AcDbLine
 10
83.0000004642838
 20
60.0312500000007
 30
0.0
 11
68.0000004642838
 21
60.4999999999998
 31
0.0
  0
LINE
  5
301
330
1F
100
AcDbEntity
  8
3
  6
Continuous
 62
     3
100
AcDbLine
 10
68.0000004642838
 20
60.4999999999998
 30
0.0
 11
43.5000004642845
 21
60.4999999999998
 31
0.0
  0
LINE
  5
302
330
1F
100
AcDbEntity
  8
3
  6
Continuous
 62
     3
100
AcDbLine
 10
25.5000004642839
 20
34.4999999999998
 30
0.0
 11
26.8844046251778
 21
32.1021416551218
 31
0.0
  0
LINE
  5
303
330
1F
100
AcDbEntity
  8
3
  6
Continuous
 62
     3
100
AcDbLine
 10
25.5000004642839
 20
65.4999999999998
 30
0.0
 11
26.8844046251778
 21
67.8978583448799
 31
0.0
  0
LINE
  5
304
330
1F
100
AcDbEntity
  8
3
  6
Continuous
 62
     3
100
AcDbLine
 10
42.1155963033899
 20
41.0510708275618
 30
0.0
 11
26.8844046251778
 21
41.0510708275618
 31
0.0
  0
LINE
  5
305
330
1F
100
AcDbEntity
  8
3
  6
Continuous
 62
     3
100
AcDbLine
 10
43.5000004642839
 20
39.4999999999998
 30
0.0
 11
68.0000004642838
 21
39.4999999999998
 31
0.0
  0
LINE
  5
306
330
1F
100
AcDbEntity
  8
3
  6
Continuous
 62
     3
100
AcDbLine
 10
42.1155963033899
 20
32.1021416551218
 30
0.0
 11
26.8844046251778
 21
32.1021416551218
 31
0.0
  0
LINE
  5
307
330
1F
100
AcDbEntity
  8
3
  6
Continuous
 62
     3
100
AcDbLine
 10
43.5000004642839
 20
34.4999999999998
 30
0.0
 11
42.1155963033899
 21
32.1021416551218
 31
0.0
  0
LINE
  5
308
330
1F
100
AcDbEntity
  8
3
  6
Continuous
 62
     3
100
AcDbLine
 10
67.963705682022
 20
40.6614330324139
 30
0.0
 11
82.963705682022
 21
41.1301830324139
 31
0.0
  0
LINE
  5
309
330
1F
100
AcDbEntity
  8
3
  6
Continuous
 62
     3
100
AcDbLine
 10
68.0000004642838
 20
39.4999999999998
 30
0.0
 11
83.0000004642838
 21
39.9687500000012
 31
0.0
  0
LINE
  5
30A
330
1F
100
AcDbEntity
  8
3
  6
Continuous
 62
     3
100
AcDbLine
 10
42.1155963033899
 20
58.9489291724399
 30
0.0
 11
26.8844046251778
 21
58.9489291724399
 31
0.0
  0
LINE
  5
30B
330
1F
100
AcDbEntity
  8
3
  6
Continuous
 62
     3
100
AcDbLine
 10
43.5000004642839
 20
65.4999999999998
 30
0.0
 11
42.1155963033899
 21
67.8978583448799
 31
0.0
  0
LINE
  5
30C
330
1F
100
AcDbEntity
  8
3
  6
Continuous
 62
     3
100
AcDbLine
 10
42.1155963033899
 20
67.8978583448799
 30
0.0
 11
26.8844046251778
 21
67.8978583448799
 31
0.0
  0
LINE
  5
30D
330
1F
100
AcDbEntity
  8
3
  6
Continuous
 62
     3
100
AcDbLine
 10
67.963705682022
 20
59.3385669675878
 30
0.0
 11
82.963705682022
 21
58.8698169675878
 31
0.0
  0
LINE
  5
30E
330
1F
100
AcDbEntity
  8
3
  6
Continuous
 62
     3
100
AcDbLine
 10
83.0000004642838
 20
39.9687500000012
 30
0.0
 11
83.0000004642838
 21
60.0312500000007
 31
0.0
  0
LINE
  5
30F
330
1F
100
AcDbEntity
  8
0
  6
Continuous
 62
     3
100
AcDbLine
 10
24.9581210682409
 20
61.9007310075769
 30
0.0
 11
24.9581210682409
 21
38.0992689924227
 31
0.0
  0
LINE
  5
310
330
1F
100
AcDbEntity
  8
0
  6
DOTTED
 62
     4
100
AcDbLine
 10
26.2000004642839
 20
63.0999999999998
 30
0.0
 11
25.5000004642839
 21
62.4240178576349
 31
0.0
  0
LINE
  5
311
330
1F
100
AcDbEntity
  8
0
  6
DOTTED
 62
     4
100
AcDbLine
 10
26.2000004642839
 20
36.8999999999998
 30
0.0
 11
25.5000004642839
 21
37.5759821423648
 31
0.0
  0
LINE
  5
312
330
1F
100
AcDbEntity
  8
0
  6
DOTTED
 62
     4
100
AcDbLine
 10
35.0000004642839
 20
36.8999999999998
 30
0.0
 11
35.0000004642839
 21
63.0999999999998
 31
0.0
  0
LINE
  5
313
330
1F
100
AcDbEntity
  8
0
  6
DOTTED
 62
     4
100
AcDbLine
 10
26.2000004642839
 20
36.8999999999998
 30
0.0
 11
35.0000004642839
 21
36.8999999999998
 31
0.0
  0
LINE
  5
314
330
1F
100
AcDbEntity
  8
0
  6
DOTTED
 62
     4
100
AcDbLine
 10
26.2000004642839
 20
63.0999999999998
 30
0.0
 11
35.0000004642839
 21
63.0999999999998
 31
0.0
  0
LINE
  5
315
330
1F
100
AcDbEntity
  8
1
  6
Continuous
 62
     3
100
AcDbLine
 10
44.4999999999989
 20
13.1
 30
0.0
 11
90.9999999999994
 21
13.1
 31
0.0
  0
LINE
  5
316
330
1F
100
AcDbEntity
  8
1
  6
Continuous
 62
     3
100
AcDbLine
 10
90.9999999999994
 20
-13.1
 30
0.0
 11
90.9999999999994
 21
13.1
 31
0.0
  0
LINE
  5
317
330
1F
100
AcDbEntity
  8
1
  6
Continuous
 62
     3
100
AcDbLine
 10
90.9625855086954
 20
11.761289458494
 30
0.0
 11
71.9999999999994
 21
12.353870255641
 31
0.0
  0
LINE
  5
318
330
1F
100
AcDbEntity
  8
1
  6
Continuous
 62
     3
100
AcDbLine
 10
71.9999999999994
 20
-13.1
 30
0.0
 11
71.9999999999994
 21
13.1
 31
0.0
  0
LINE
  5
319
330
1F
100
AcDbEntity
  8
1
  6
Continuous
 62
     3
100
AcDbLine
 10
44.4999999999989
 20
-13.1
 30
0.0
 11
90.9999999999994
 21
-13.1
 31
0.0
  0
LINE
  5
31A
330
1F
100
AcDbEntity
  8
1
  6
Continuous
 62
     3
100
AcDbLine
 10
90.9625855086954
 20
-11.761289458494
 30
0.0
 11
71.9999999999994
 21
-12.353870255641
 31
0.0
  0
LINE
  5
31B
330
1F
100
AcDbEntity
  8
1
  6
Continuous
 62
     3
100
AcDbLine
 10
44.4999999999989
 20
19.0
 30
0.0
 11
44.4999999999989
 21
-19.0
 31
0.0
  0
LINE
  5
31C
330
1F
100
AcDbEntity
  8
1
  6
Continuous
 62
     3
100
AcDbLine
 10
42.802988447935
 20
21.9393102292061
 30
0.0
 11
44.4999999999989
 21
19.0
 31
0.0
  0
LINE
  5
31D
330
1F
100
AcDbEntity
  8
1
  6
Continuous
 62
     3
100
AcDbLine
 10
24.1970115520629
 20
21.9393102292061
 30
0.0
 11
42.802988447935
 21
21.9393102292061
 31
0.0
  0
LINE
  5
31E
330
1F
100
AcDbEntity
  8
1
  6
Continuous
 62
     3
100
AcDbLine
 10
22.4999999999989
 20
19.0
 30
0.0
 11
24.1970115520629
 21
21.9393102292061
 31
0.0
  0
LINE
  5
31F
330
1F
100
AcDbEntity
  8
1
  6
Continuous
 62
     3
100
AcDbLine
 10
22.4999999999989
 20
-19.0
 30
0.0
 11
22.4999999999989
 21
-16.8499999999999
 31
0.0
  0
LINE
  5
320
330
1F
100
AcDbEntity
  8
1
  6
Continuous
 62
     3
100
AcDbLine
 10
24.1970115520629
 20
-21.9393102292059
 30
0.0
 11
22.4999999999989
 21
-19.0
 31
0.0
  0
LINE
  5
321
330
1F
100
AcDbEntity
  8
1
  6
Continuous
 62
     3
100
AcDbLine
 10
42.802988447935
 20
-21.9393102292059
 30
0.0
 11
24.1970115520629
 21
-21.9393102292059
 31
0.0
  0
LINE
  5
322
330
1F
100
AcDbEntity
  8
1
  6
Continuous
 62
     3
100
AcDbLine
 10
44.4999999999989
 20
-19.0
 30
0.0
 11
42.802988447935
 21
-21.9393102292059
 31
0.0
  0
LINE
  5
323
330
1F
100
AcDbEntity
  8
1
  6
Continuous
 62
     3
100
AcDbLine
 10
24.1970115520629
 20
10.969655114603
 30
0.0
 11
42.802988447935
 21
10.969655114603
 31
0.0
  0
LINE
  5
324
330
1F
100
AcDbEntity
  8
1
  6
Continuous
 62
     3
100
AcDbLine
 10
22.4999999999989
 20
-15.3499999999999
 30
0.0
 11
22.4999999999989
 21
19.0
 31
0.0
  0
LINE
  5
325
330
1F
100
AcDbEntity
  8
1
  6
Continuous
 62
     3
100
AcDbLine
 10
22.4999999999989
 20
-16.8499999999999
 30
0.0
 11
22.4999999999989
 21
-15.3499999999999
 31
0.0
  0
LINE
  5
326
330
1F
100
AcDbEntity
  8
1
  6
Continuous
 62
     3
100
AcDbLine
 10
42.802988447935
 20
-10.969655114603
 30
0.0
 11
24.1970115520629
 21
-10.969655114603
 31
0.0
  0
LINE
  5
327
330
1F
100
AcDbEntity
  8
1
  6
Continuous
 62
     3
100
AcDbLine
 10
-24.1970115520629
 20
-10.969655114603
 30
0.0
 11
-42.802988447935
 21
-10.969655114603
 31
0.0
  0
LINE
  5
328
330
1F
100
AcDbEntity
  8
1
  6
Continuous
 62
     3
100
AcDbLine
 10
-22.4999999999989
 20
-15.3499999999999
 30
0.0
 11
-22.4999999999989
 21
-16.8499999999999
 31
0.0
  0
LINE
  5
329
330
1F
100
AcDbEntity
  8
1
  6
Continuous
 62
     3
100
AcDbLine
 10
-22.4999999999989
 20
19.0
 30
0.0
 11
-22.4999999999989
 21
-15.3499999999999
 31
0.0
  0
LINE
  5
32A
330
1F
100
AcDbEntity
  8
1
  6
Continuous
 62
     3
100
AcDbLine
 10
-42.802988447935
 20
-21.9393102292059
 30
0.0
 11
-44.4999999999989
 21
-19.0
 31
0.0
  0
LINE
  5
32B
330
1F
100
AcDbEntity
  8
1
  6
Continuous
 62
     3
100
AcDbLine
 10
-24.1970115520629
 20
-21.9393102292059
 30
0.0
 11
-42.802988447935
 21
-21.9393102292059
 31
0.0
  0
LINE
  5
32C
330
1F
100
AcDbEntity
  8
1
  6
Continuous
 62
     3
100
AcDbLine
 10
-22.4999999999989
 20
-19.0
 30
0.0
 11
-24.1970115520629
 21
-21.9393102292059
 31
0.0
  0
LINE
  5
32D
330
1F
100
AcDbEntity
  8
1
  6
Continuous
 62
     3
100
AcDbLine
 10
-22.4999999999989
 20
-16.8499999999999
 30
0.0
 11
-22.4999999999989
 21
-19.0
 31
0.0
  0
LINE
  5
32E
330
1F
100
AcDbEntity
  8
1
  6
Continuous
 62
     3
100
AcDbLine
 10
-24.1970115520629
 20
21.9393102292061
 30
0.0
 11
-22.4999999999989
 21
19.0
 31
0.0
  0
LINE
  5
32F
330
1F
100
AcDbEntity
  8
1
  6
Continuous
 62
     3
100
AcDbLine
 10
-42.802988447935
 20
21.9393102292061
 30
0.0
 11
-24.1970115520629
 21
21.9393102292061
 31
0.0
  0
LINE
  5
330
330
1F
100
AcDbEntity
  8
1
  6
Continuous
 62
     3
100
AcDbLine
 10
-44.4999999999989
 20
19.0
 30
0.0
 11
-42.802988447935
 21
21.9393102292061
 31
0.0
  0
LINE
  5
331
330
1F
100
AcDbEntity
  8
1
  6
Continuous
 62
     3
100
AcDbLine
 10
-44.4999999999989
 20
-19.0
 30
0.0
 11
-44.4999999999989
 21
19.0
 31
0.0
  0
LINE
  5
332
330
1F
100
AcDbEntity
  8
1
  6
Continuous
 62
     3
100
AcDbLine
 10
-71.9999999999994
 20
-12.353870255641
 30
0.0
 11
-90.9625855086954
 21
-11.761289458494
 31
0.0
  0
LINE
  5
333
330
1F
100
AcDbEntity
  8
1
  6
Continuous
 62
     3
100
AcDbLine
 10
-90.9999999999994
 20
-13.1
 30
0.0
 11
-44.4999999999989
 21
-13.1
 31
0.0
  0
LINE
  5
334
330
1F
100
AcDbEntity
  8
1
  6
Continuous
 62
     3
100
AcDbLine
 10
-71.9999999999994
 20
13.1
 30
0.0
 11
-71.9999999999994
 21
-13.1
 31
0.0
  0
LINE
  5
335
330
1F
100
AcDbEntity
  8
1
  6
Continuous
 62
     3
100
AcDbLine
 10
-71.9999999999994
 20
12.353870255641
 30
0.0
 11
-90.9625855086954
 21
11.761289458494
 31
0.0
  0
LINE
  5
336
330
1F
100
AcDbEntity
  8
1
  6
Continuous
 62
     3
100
AcDbLine
 10
-90.9999999999994
 20
13.1
 30
0.0
 11
-90.9999999999994
 21
-13.1
 31
0.0
  0
LINE
  5
337
330
1F
100
AcDbEntity
  8
1
  6
Continuous
 62
     3
100
AcDbLine
 10
-90.9999999999994
 20
13.1
 30
0.0
 11
-44.4999999999989
 21
13.1
 31
0.0
  0
LINE
  5
338
330
1F
100
AcDbEntity
  8
100
  6
Continuous
 62
     3
100
AcDbLine
 10
13.54715140292
 20
-16.964503066996
 30
0.0
 11
16.303847577293
 21
-15.372923788647
 31
0.0
  0
LINE
  5
339
330
1F
100
AcDbEntity
  8
100
  6
Continuous
 62
     3
100
AcDbLine
 10
-16.303847577293
 20
15.3729237886464
 30
0.0
 11
-14.0
 21
16.7030508075686
 31
0.0
  0
LINE
  5
33A
330
1F
100
AcDbEntity
  8
100
  6
Continuous
 62
     3
100
AcDbLine
 10
16.303847577293
 20
15.3729237886464
 30
0.0
 11
14.0
 21
16.7030508075686
 31
0.0
  0
LINE
  5
33B
330
1F
100
AcDbEntity
  8
100
  6
Continuous
 62
     3
100
AcDbLine
 10
-16.535898384862
 20
-15.238949192431
 30
0.0
 11
-13.54715140292
 21
-16.964503066996
 31
0.0
  0
LINE
  5
33C
330
1F
100
AcDbEntity
  8
100
  6
Continuous
 62
     3
100
AcDbLine
 10
-12.5
 20
-18.723776749733
 30
0.0
 11
-12.5
 21
-19.0
 31
0.0
  0
LINE
  5
33D
330
1F
100
AcDbEntity
  8
100
  6
Continuous
 62
     3
100
AcDbLine
 10
-20.422926898047
 20
-16.45
 30
0.0
 11
-22.4999999999989
 21
-16.45
 31
0.0
  0
LINE
  5
33E
330
1F
100
AcDbEntity
  8
100
  6
DOTTED
 62
     4
100
AcDbLine
 10
-35.0
 20
16.4499999999997
 30
0.0
 11
-35.0
 21
-16.45
 31
0.0
  0
LINE
  5
33F
330
1F
100
AcDbEntity
  8
100
  6
Continuous
 62
     3
100
AcDbLine
 10
-20.422926898047
 20
16.4499999999997
 30
0.0
 11
-22.4999999999989
 21
16.4499999999997
 31
0.0
  0
LINE
  5
340
330
1F
100
AcDbEntity
  8
100
  6
DOTTED
 62
     4
100
AcDbLine
 10
34.9999999999999
 20
16.4499999999997
 30
0.0
 11
34.9999999999999
 21
-16.45
 31
0.0
  0
LINE
  5
341
330
1F
100
AcDbEntity
  8
100
  6
Continuous
 62
     3
100
AcDbLine
 10
20.422926898046
 20
16.4499999999999
 30
0.0
 11
22.5000010344971
 21
16.4499999999997
 31
0.0
  0
LINE
  5
342
330
1F
100
AcDbEntity
  8
100
  6
Continuous
 62
     3
100
AcDbLine
 10
20.422926898046
 20
-16.45
 30
0.0
 11
22.4999999999989
 21
-16.45
 31
0.0
  0
LINE
  5
343
330
1F
100
AcDbEntity
  8
1
  6
Continuous
 62
     3
100
AcDbLine
 10
22.4999999999989
 20
15.1455
 30
0.0
 11
19.2492184820308
 21
15.1455
 31
0.0
  0
LINE
  5
344
330
1F
100
AcDbEntity
  8
1
  6
Continuous
 62
     3
100
AcDbLine
 10
22.4999999999989
 20
-15.1455
 30
0.0
 11
19.2492184820321
 21
-15.1455
 31
0.0
  0
LINE
  5
345
330
1F
100
AcDbEntity
  8
1
  6
Continuous
 62
     3
100
AcDbLine
 10
-22.4999999999989
 20
-15.1455
 30
0.0
 11
-19.2492184820334
 21
-15.1455
 31
0.0
  0
LINE
  5
346
330
1F
100
AcDbEntity
  8
1
  6
Continuous
 62
     3
100
AcDbLine
 10
-22.4999999999989
 20
15.1455
 30
0.0
 11
-19.2492184820319
 21
15.1455
 31
0.0
  0
LINE
  5
347
330
1F
100
AcDbEntity
  8
100
  6
DOTTED
 62
     4
100
AcDbLine
 10
-22.4999999999989
 20
16.4499999999997
 30
0.0
 11
-35.0
 21
16.4499999999997
 31
0.0
  0
LINE
  5
348
330
1F
100
AcDbEntity
  8
100
  6
DOTTED
 62
     4
100
AcDbLine
 10
22.5000010344971
 20
16.4499999999997
 30
0.0
 11
34.9999999999999
 21
16.4499999999997
 31
0.0
  0
LINE
  5
349
330
1F
100
AcDbEntity
  8
100
  6
DOTTED
 62
     4
100
AcDbLine
 10
22.4999999999989
 20
-16.45
 30
0.0
 11
34.9999999999999
 21
-16.45
 31
0.0
  0
LINE
  5
34A
330
1F
100
AcDbEntity
  8
1
  6
Continuous
 62
     3
100
AcDbLine
 10
-20.422926898047
 20
16.4499999999997
 30
0.0
 11
-20.422926898047
 21
-16.45
 31
0.0
  0
LINE
  5
34B
330
1F
100
AcDbEntity
  8
1
  6
Continuous
 62
     3
100
AcDbLine
 10
20.422926898046
 20
16.4499999999999
 30
0.0
 11
20.422926898046
 21
-16.45
 31
0.0
  0
LINE
  5
34C
330
1F
100
AcDbEntity
  8
3
  6
Continuous
 62
     3
100
AcDbLine
 10
-9.0
 20
126.400073201234
 30
0.0
 11
-9.0
 21
133.0
 31
0.0
  0
LINE
  5
34D
330
1F
100
AcDbEntity
  8
1
  6
Continuous
 62
     3
100
AcDbLine
 10
-42.802988447935
 20
10.969655114603
 30
0.0
 11
-24.1970115520629
 21
10.969655114603
 31
0.0
  0
LINE
  5
34E
330
1F
100
AcDbEntity
  8
3
  6
Continuous
 62
     3
100
AcDbLine
 10
-10.8452994616207
 20
0.0
 30
0.0
 11
14.8452994616214
 21
0.0
 31
0.0
  0
LINE
  5
34F
330
1F
100
AcDbEntity
  8
3
  6
Continuous
 62
     3
100
AcDbLine
 10
-10.8452994616207
 20
-1.0
 30
0.0
 11
-10.8452994616207
 21
0.0
 31
0.0
  0
LINE
  5
350
330
1F
100
AcDbEntity
  8
3
  6
Continuous
 62
     3
100
AcDbLine
 10
-1.60769515458671
 20
-1.0
 30
0.0
 11
-3.91709623134511
 21
-5.0
 31
0.0
  0
LINE
  5
351
330
1F
100
AcDbEntity
  8
3
  6
Continuous
 62
     3
100
AcDbLine
 10
10.3452994616214
 20
-1.0
 30
0.0
 11
-1.60769515458671
 21
-1.0
 31
0.0
  0
LINE
  5
352
330
1F
100
AcDbEntity
  8
3
  6
Continuous
 62
     3
100
AcDbLine
 10
8.8865314986497
 20
-5.0
 30
0.0
 11
10.3452994616214
 21
-1.0
 31
0.0
  0
LINE
  5
353
330
1F
100
AcDbEntity
  8
3
  6
Continuous
 62
     3
100
AcDbLine
 10
14.8452994616214
 20
0.0
 30
0.0
 11
8.8865314986497
 21
-5.0
 31
0.0
  0
LINE
  5
354
330
1F
100
AcDbEntity
  8
3
  6
Continuous
 62
     3
100
AcDbLine
 10
-8.94892917243919
 20
-55.1155958391054
 30
0.0
 11
-8.94892917243919
 21
-39.8844041608936
 31
0.0
  0
LINE
  5
355
330
1F
100
AcDbEntity
  8
0
  6
Continuous
 62
     3
100
AcDbLine
 10
-24.9581210682409
 20
57.0992689924227
 30
0.0
 11
-25.5000004642839
 21
56.5759821423648
 31
0.0
  0
LINE
  5
356
330
1F
100
AcDbEntity
  8
0
  6
Continuous
 62
     3
100
AcDbLine
 10
-24.9581210682409
 20
80.9007310075769
 30
0.0
 11
-25.5000004642839
 21
81.4240178576349
 31
0.0
  0
LINE
  5
357
330
1F
100
AcDbEntity
  8
0
  6
Continuous
 62
     3
100
AcDbLine
 10
-24.9581210682409
 20
57.0992689924227
 30
0.0
 11
-24.9581210682409
 21
80.9007310075769
 31
0.0
  0
LINE
  5
358
330
1F
100
AcDbEntity
  8
100
  6
DOTTED
 62
     4
100
AcDbLine
 10
-22.4999999999989
 20
-16.45
 30
0.0
 11
-35.0
 21
-16.45
 31
0.0
  0
LINE
  5
359
330
1F
100
AcDbEntity
  8
1
  6
Continuous
 62
     3
100
AcDbLine
 10
-177.42534167916
 20
-16.0
 30
0.0
 11
-181.138154600262
 21
-16.0
 31
0.0
  0
LINE
  5
35A
330
1F
100
AcDbEntity
  8
1
  6
Continuous
 62
     3
100
AcDbLine
 10
-177.42534167916
 20
27.0
 30
0.0
 11
-205.42534167916
 21
27.0
 31
0.0
  0
LINE
  5
35B
330
1F
100
AcDbEntity
  8
1
  6
Continuous
 62
     3
100
AcDbLine
 10
-203.92534167916
 20
-19.0
 30
0.0
 11
-203.92534167916
 21
-17.5
 31
0.0
  0
LINE
  5
35C
330
1F
100
AcDbEntity
  8
1
  6
Continuous
 62
     3
100
AcDbLine
 10
-178.92534167916
 20
-19.0
 30
0.0
 11
-178.92534167916
 21
-17.5
 31
0.0
  0
LINE
  5
35D
330
1F
100
AcDbEntity
  8
1
  6
Continuous
 62
     3
100
AcDbLine
 10
-206.42534167916
 20
16.0
 30
0.0
 11
-201.712528758059
 21
16.0
 31
0.0
  0
LINE
  5
35E
330
1F
100
AcDbEntity
  8
1
  6
Continuous
 62
     3
100
AcDbLine
 10
-206.42534167916
 20
16.0
 30
0.0
 11
-206.42534167916
 21
13.2790561913615
 31
0.0
  0
LINE
  5
35F
330
1F
100
AcDbEntity
  8
1
  6
Continuous
 62
     3
100
AcDbLine
 10
-176.42534167916
 20
16.0
 30
0.0
 11
-176.42534167916
 21
13.2790561913615
 31
0.0
  0
LINE
  5
360
330
1F
100
AcDbEntity
  8
1
  6
Continuous
 62
     3
100
AcDbLine
 10
-203.92534167916
 20
27.0
 30
0.0
 11
-203.92534167916
 21
16.0
 31
0.0
  0
LINE
  5
361
330
1F
100
AcDbEntity
  8
1
  6
Continuous
 62
     3
100
AcDbLine
 10
-178.92534167916
 20
27.0
 30
0.0
 11
-178.92534167916
 21
16.0
 31
0.0
  0
LINE
  5
362
330
1F
100
AcDbEntity
  8
1
  6
Continuous
 62
     3
100
AcDbLine
 10
-175.42534167916
 20
40.5
 30
0.0
 11
-175.42534167916
 21
29.0
 31
0.0
  0
LINE
  5
363
330
1F
100
AcDbEntity
  8
1
  6
Continuous
 62
     3
100
AcDbLine
 10
-207.42534167916
 20
40.5
 30
0.0
 11
-207.42534167916
 21
29.0
 31
0.0
  0
LINE
  5
364
330
1F
100
AcDbEntity
  8
1
  6
Continuous
 62
     3
100
AcDbLine
 10
-211.425341679123
 20
40.4999999999821
 30
0.0
 11
-171.425341679198
 21
40.4999999999821
 31
0.0
  0
LINE
  5
365
330
1F
100
AcDbEntity
  8
3
  6
Continuous
 62
     3
100
AcDbLine
 10
-180.925341679161
 20
-56.4999999999994
 30
0.0
 11
-180.925341679161
 21
-80.9999999999994
 31
0.0
  0
LINE
  5
366
330
1F
100
AcDbEntity
  8
3
  6
Continuous
 62
     3
100
AcDbLine
 10
-182.086774711573
 20
-80.9637052177366
 30
0.0
 11
-182.555524711574
 21
-95.9637052177366
 31
0.0
  0
LINE
  5
367
330
1F
100
AcDbEntity
  8
3
  6
Continuous
 62
     3
100
AcDbLine
 10
-180.925341679161
 20
-80.9999999999994
 30
0.0
 11
-181.39409167916
 21
-95.9999999999994
 31
0.0
  0
LINE
  5
368
330
1F
100
AcDbEntity
  8
3
  6
Continuous
 62
     3
100
AcDbLine
 10
-201.92534167916
 20
-56.4999999999994
 30
0.0
 11
-201.92534167916
 21
-80.9999999999994
 31
0.0
  0
LINE
  5
369
330
1F
100
AcDbEntity
  8
3
  6
Continuous
 62
     3
100
AcDbLine
 10
-201.92534167916
 20
-80.9999999999994
 30
0.0
 11
-201.45659167916
 21
-95.9999999999994
 31
0.0
  0
LINE
  5
36A
330
1F
100
AcDbEntity
  8
3
  6
Continuous
 62
     3
100
AcDbLine
 10
-200.763908646747
 20
-80.9637052177366
 30
0.0
 11
-200.295158646747
 21
-95.9637052177366
 31
0.0
  0
LINE
  5
36B
330
1F
100
AcDbEntity
  8
3
  6
Continuous
 62
     3
100
AcDbLine
 10
-181.39409167916
 20
-95.9999999999994
 30
0.0
 11
-201.45659167916
 21
-95.9999999999994
 31
0.0
  0
LINE
  5
36C
330
1F
100
AcDbEntity
  8
3
  6
Continuous
 62
     3
100
AcDbLine
 10
-180.925341679161
 20
-80.9999999999994
 30
0.0
 11
-201.92534167916
 21
-80.9999999999994
 31
0.0
  0
LINE
  5
36D
330
1F
100
AcDbEntity
  8
1
  6
Continuous
 62
     3
100
AcDbLine
 10
-175.925341679161
 20
-38.4999999999994
 30
0.0
 11
-175.925341679161
 21
-56.4999999999994
 31
0.0
  0
LINE
  5
36E
330
1F
100
AcDbEntity
  8
1
  6
Continuous
 62
     3
100
AcDbLine
 10
-206.92534167916
 20
-56.4999999999994
 30
0.0
 11
-206.92534167916
 21
-38.4999999999994
 31
0.0
  0
LINE
  5
36F
330
1F
100
AcDbEntity
  8
1
  6
Continuous
 62
     3
100
AcDbLine
 10
-191.425341679161
 20
-39.8844041608936
 30
0.0
 11
-191.425341679161
 21
-55.1155958391054
 31
0.0
  0
LINE
  5
370
330
1F
100
AcDbEntity
  8
3
  6
Continuous
 62
     3
100
AcDbLine
 10
-204.52534167916
 20
-36.3039309160824
 30
0.0
 11
-178.325341679161
 21
-36.3039309160824
 31
0.0
  0
LINE
  5
371
330
1F
100
AcDbEntity
  8
3
  6
DOTTED
 62
     4
100
AcDbLine
 10
-178.325341679161
 20
-47.9999999999994
 30
0.0
 11
-204.52534167916
 21
-47.9999999999994
 31
0.0
  0
LINE
  5
372
330
1F
100
AcDbEntity
  8
3
  6
Continuous
 62
     3
100
AcDbLine
 10
-179.366841679161
 20
-36.3039309160824
 30
0.0
 11
-179.366841679161
 21
-38.4999999999994
 31
0.0
  0
LINE
  5
373
330
1F
100
AcDbEntity
  8
3
  6
Continuous
 62
     3
100
AcDbLine
 10
-203.48384167916
 20
-36.3039309160824
 30
0.0
 11
-203.48384167916
 21
-38.4999999999994
 31
0.0
  0
LINE
  5
374
330
1F
100
AcDbEntity
  8
3
  6
DOTTED
 62
     4
100
AcDbLine
 10
-178.325341679161
 20
-38.4999999999994
 30
0.0
 11
-178.325341679161
 21
-47.9999999999994
 31
0.0
  0
LINE
  5
375
330
1F
100
AcDbEntity
  8
3
  6
DOTTED
 62
     4
100
AcDbLine
 10
-204.52534167916
 20
-47.9999999999994
 30
0.0
 11
-204.52534167916
 21
-38.4999999999994
 31
0.0
  0
LINE
  5
376
330
1F
100
AcDbEntity
  8
3
  6
Continuous
 62
     3
100
AcDbLine
 10
-204.52534167916
 20
-38.4999999999994
 30
0.0
 11
-204.52534167916
 21
-34.4999999999994
 31
0.0
  0
LINE
  5
377
330
1F
100
AcDbEntity
  8
3
  6
Continuous
 62
     3
100
AcDbLine
 10
-208.42534167916
 20
-34.4999999999994
 30
0.0
 11
-174.425341679161
 21
-34.4999999999994
 31
0.0
  0
LINE
  5
378
330
1F
100
AcDbEntity
  8
3
  6
Continuous
 62
     3
100
AcDbLine
 10
-174.425341679161
 20
-21.9999999999994
 30
0.0
 11
-208.42534167916
 21
-21.9999999999994
 31
0.0
  0
LINE
  5
379
330
1F
100
AcDbEntity
  8
1
  6
Continuous
 62
     3
100
AcDbLine
 10
-174.425341679161
 20
-21.9999999999994
 30
0.0
 11
-174.425341679161
 21
-34.4999999999994
 31
0.0
  0
LINE
  5
37A
330
1F
100
AcDbEntity
  8
1
  6
Continuous
 62
     3
100
AcDbLine
 10
-208.42534167916
 20
-34.4999999999994
 30
0.0
 11
-208.42534167916
 21
-21.9999999999994
 31
0.0
  0
LINE
  5
37B
330
1F
100
AcDbEntity
  8
1
  6
Continuous
 62
     3
100
AcDbLine
 10
-176.605729349279
 20
-23.4999999999994
 30
0.0
 11
-176.605729349279
 21
-32.9999999999994
 31
0.0
  0
LINE
  5
37C
330
1F
100
AcDbEntity
  8
1
  6
Continuous
 62
     3
100
AcDbLine
 10
-189.244954009043
 20
-23.4999999999994
 30
0.0
 11
-189.244954009043
 21
-32.9999999999994
 31
0.0
  0
LINE
  5
37D
330
1F
100
AcDbEntity
  8
1
  6
Continuous
 62
     3
100
AcDbLine
 10
-206.244954009043
 20
-23.4999999999994
 30
0.0
 11
-206.244954009043
 21
-32.9999999999994
 31
0.0
  0
LINE
  5
37E
330
1F
100
AcDbEntity
  8
1
  6
DOT_CENTER
 62
     1
100
AcDbLine
 10
-211.92534167916
 20
68.9999999999998
 30
0.0
 11
-170.92534167916
 21
68.9999999999998
 31
0.0
  0
LINE
  5
37F
330
1F
100
AcDbEntity
  8
1
  6
DOT_CENTER
 62
     1
100
AcDbLine
 10
-215.42534167916
 20
0.0
 30
0.0
 11
-167.42534167916
 21
0.0
 31
0.0
  0
LINE
  5
380
330
1F
100
AcDbEntity
  8
1
  6
Continuous
 62
     3
100
AcDbLine
 10
-193.605729349279
 20
-32.9999999999994
 30
0.0
 11
-193.605729349279
 21
-23.4999999999994
 31
0.0
  0
LINE
  5
381
330
1F
100
AcDbEntity
  8
1
  6
Continuous
 62
     3
100
AcDbLine
 10
-206.42534167916
 20
-13.2790561913615
 30
0.0
 11
-206.42534167916
 21
-15.0
 31
0.0
  0
LINE
  5
382
330
1F
100
AcDbEntity
  8
1
  6
Continuous
 62
     3
100
AcDbLine
 10
-176.42534167916
 20
-13.2790561913615
 30
0.0
 11
-176.42534167916
 21
-15.0
 31
0.0
  0
LINE
  5
383
330
1F
100
AcDbEntity
  8
1
  6
Continuous
 62
     3
100
AcDbLine
 10
-201.712528758059
 20
-16.0
 30
0.0
 11
-205.42534167916
 21
-16.0
 31
0.0
  0
LINE
  5
384
330
1F
100
AcDbEntity
  8
1
  6
Continuous
 62
     3
100
AcDbLine
 10
-181.138154600262
 20
16.0
 30
0.0
 11
-176.42534167916
 21
16.0
 31
0.0
  0
LINE
  5
385
330
1F
100
AcDbEntity
  8
0
  6
Continuous
 62
     3
100
AcDbLine
 10
-211.425341679123
 20
40.4999999999821
 30
0.0
 11
-211.425341679232
 21
78.4999998046563
 31
0.0
  0
LINE
  5
386
330
1F
100
AcDbEntity
  8
0
  6
Continuous
 62
     3
100
AcDbLine
 10
-171.425341679088
 20
78.4999998046563
 30
0.0
 11
-171.425341679198
 21
40.4999999999821
 31
0.0
  0
LINE
  5
387
330
1F
100
AcDbEntity
  8
0
  6
Continuous
 62
     3
100
AcDbLine
 10
-211.425341679178
 20
59.4999997725527
 30
0.0
 11
-205.970858668185
 21
59.4999998042375
 31
0.0
  0
LINE
  5
388
330
1F
100
AcDbEntity
  8
0
  6
Continuous
 62
     3
100
AcDbLine
 10
-176.879824397439
 20
59.4999999732258
 30
0.0
 11
-171.425341679143
 21
59.5000000049106
 31
0.0
  0
LINE
  5
389
330
1F
100
AcDbEntity
  8
3
  6
Continuous
 62
     3
100
AcDbLine
 10
-200.42534167916
 20
126.400073201234
 30
0.0
 11
-200.42534167916
 21
133.0
 31
0.0
  0
LINE
  5
38A
330
1F
100
AcDbEntity
  8
3
  6
Continuous
 62
     3
100
AcDbLine
 10
-195.82534167916
 20
151.0
 30
0.0
 11
-195.82534167916
 21
133.0
 31
0.0
  0
LINE
  5
38B
330
1F
100
AcDbEntity
  8
3
  6
Continuous
 62
     3
100
AcDbLine
 10
-222.42534167916
 20
151.0
 30
0.0
 11
-160.425341679161
 21
151.0
 31
0.0
  0
LINE
  5
38C
330
1F
100
AcDbEntity
  8
3
  6
Continuous
 62
     3
100
AcDbLine
 10
-160.425341679161
 20
151.0
 30
0.0
 11
-160.425341679161
 21
161.044738518464
 31
0.0
  0
LINE
  5
38D
330
1F
100
AcDbEntity
  8
3
  6
Continuous
 62
     3
100
AcDbLine
 10
-164.681324371393
 20
166.7856795241
 30
0.0
 11
-178.55398786115
 21
171.0
 31
0.0
  0
LINE
  5
38E
330
1F
100
AcDbEntity
  8
3
  6
Continuous
 62
     3
100
AcDbLine
 10
-178.55398786115
 20
171.0
 30
0.0
 11
-204.29669549717
 21
171.0
 31
0.0
  0
LINE
  5
38F
330
1F
100
AcDbEntity
  8
3
  6
Continuous
 62
     3
100
AcDbLine
 10
-218.169358986929
 20
166.7856795241
 30
0.0
 11
-204.29669549717
 21
171.0
 31
0.0
  0
LINE
  5
390
330
1F
100
AcDbEntity
  8
3
  6
Continuous
 62
     3
100
AcDbLine
 10
-222.42534167916
 20
151.0
 30
0.0
 11
-222.42534167916
 21
161.044738518464
 31
0.0
  0
LINE
  5
391
330
1F
100
AcDbEntity
  8
3
  6
Continuous
 62
     3
100
AcDbLine
 10
-182.42534167916
 20
133.0
 30
0.0
 11
-200.42534167916
 21
133.0
 31
0.0
  0
LINE
  5
392
330
1F
100
AcDbEntity
  8
3
  6
Continuous
 62
     3
100
AcDbLine
 10
-182.42534167916
 20
133.0
 30
0.0
 11
-182.42534167916
 21
126.400073201234
 31
0.0
  0
LINE
  5
393
330
1F
100
AcDbEntity
  8
3
  6
Continuous
 62
     3
100
AcDbLine
 10
-200.42534167916
 20
126.400073201234
 30
0.0
 11
-200.42534167916
 21
133.0
 31
0.0
  0
LINE
  5
394
330
1F
100
AcDbEntity
  8
3
  6
Continuous
 62
     3
100
AcDbLine
 10
-207.42534167916
 20
99.4999999999998
 30
0.0
 11
-175.425341679161
 21
99.4999999999998
 31
0.0
  0
LINE
  5
395
330
1F
100
AcDbEntity
  8
3
  6
Continuous
 62
     3
100
AcDbLine
 10
-207.42534167916
 20
99.4999999999998
 30
0.0
 11
-208.42534167916
 21
100.5
 31
0.0
  0
LINE
  5
396
330
1F
100
AcDbEntity
  8
3
  6
Continuous
 62
     3
100
AcDbLine
 10
-208.42534167916
 20
100.5
 30
0.0
 11
-208.42534167916
 21
102.0
 31
0.0
  0
LINE
  5
397
330
1F
100
AcDbEntity
  8
3
  6
Continuous
 62
     3
100
AcDbLine
 10
-175.425341679161
 20
99.4999999999998
 30
0.0
 11
-174.425341679161
 21
100.5
 31
0.0
  0
LINE
  5
398
330
1F
100
AcDbEntity
  8
3
  6
Continuous
 62
     3
100
AcDbLine
 10
-174.425341679161
 20
100.5
 30
0.0
 11
-174.425341679161
 21
102.0
 31
0.0
  0
LINE
  5
399
330
1F
100
AcDbEntity
  8
3
  6
Continuous
 62
     3
100
AcDbLine
 10
-207.42534167916
 20
103.0
 30
0.0
 11
-175.425341679161
 21
103.0
 31
0.0
  0
LINE
  5
39A
330
1F
100
AcDbEntity
  8
3
  6
Continuous
 62
     3
100
AcDbLine
 10
-182.42534167916
 20
133.0
 30
0.0
 11
-200.42534167916
 21
133.0
 31
0.0
  0
LINE
  5
39B
330
1F
100
AcDbEntity
  8
3
  6
Continuous
 62
     3
100
AcDbLine
 10
-182.42534167916
 20
133.0
 30
0.0
 11
-182.42534167916
 21
126.400073201234
 31
0.0
  0
LINE
  5
39C
330
1F
100
AcDbEntity
  8
100
  6
Continuous
 62
     3
100
AcDbLine
 10
-206.92534167916
 20
99.4999999999998
 30
0.0
 11
-175.92534167916
 21
99.4999999999998
 31
0.0
  0
LINE
  5
39D
330
1F
100
AcDbEntity
  8
1
  6
Continuous
 62
     3
100
AcDbLine
 10
-206.92534167916
 20
99.4999999999998
 30
0.0
 11
-207.425341679161
 21
98.9999999999997
 31
0.0
  0
LINE
  5
39E
330
1F
100
AcDbEntity
  8
1
  6
Continuous
 62
     3
100
AcDbLine
 10
-175.92534167916
 20
99.4999999999998
 30
0.0
 11
-175.425341679161
 21
98.9999999999999
 31
0.0
  0
LINE
  5
39F
330
1F
100
AcDbEntity
  8
0
  6
Continuous
 62
     3
100
AcDbLine
 10
-211.425341679232
 20
78.5000000049106
 30
0.0
 11
-205.97085905363
 21
78.4999999732258
 31
0.0
  0
LINE
  5
3A0
330
1F
100
AcDbEntity
  8
1
  6
Continuous
 62
     3
100
AcDbLine
 10
-177.925341624351
 20
103.0
 30
0.0
 11
-177.925341624351
 21
118.048426620893
 31
0.0
  0
LINE
  5
3A1
330
1F
100
AcDbEntity
  8
1
  6
Continuous
 62
     3
100
AcDbLine
 10
-204.925341733971
 20
118.048426620893
 30
0.0
 11
-204.925341733971
 21
103.0
 31
0.0
  0
LINE
  5
3A2
330
1F
100
AcDbEntity
  8
1
  6
Continuous
 62
     3
100
AcDbLine
 10
-191.425341679161
 20
117.0
 30
0.0
 11
-191.425341679161
 21
103.0
 31
0.0
  0
LINE
  5
3A3
330
1F
100
AcDbEntity
  8
1
  6
Continuous
 62
     3
100
AcDbLine
 10
-175.425341679161
 20
98.9999999999999
 30
0.0
 11
-175.425341679161
 21
78.4999997957885
 31
0.0
  0
LINE
  5
3A4
330
1F
100
AcDbEntity
  8
1
  6
Continuous
 62
     3
100
AcDbLine
 10
-207.425341679161
 20
98.9999999999997
 30
0.0
 11
-207.425341679161
 21
78.4999999816748
 31
0.0
  0
LINE
  5
3A5
330
1F
100
AcDbEntity
  8
1
  6
Continuous
 62
     3
100
AcDbLine
 10
-189.564356258065
 20
97.4999999999998
 30
0.0
 11
-189.564356258065
 21
85.8234179110503
 31
0.0
  0
LINE
  5
3A6
330
1F
100
AcDbEntity
  8
1
  6
Continuous
 62
     3
100
AcDbLine
 10
-193.286327100256
 20
97.4999999999998
 30
0.0
 11
-193.286327100256
 21
85.8234179110503
 31
0.0
  0
LINE
  5
3A7
330
1F
100
AcDbEntity
  8
0
  6
Continuous
 62
     3
100
AcDbLine
 10
-176.879824011995
 20
78.4999998042375
 30
0.0
 11
-171.425341679146
 21
78.4999997725527
 31
0.0
  0
LINE
  5
3A8
330
1F
100
AcDbEntity
  8
3
  6
DOT_CENTER
 62
     1
100
AcDbLine
 10
-191.42534167916
 20
-98.9999999999994
 30
0.0
 11
-191.42534167916
 21
174.0
 31
0.0
  0
LINE
  5
3A9
330
1F
100
AcDbEntity
  8
100
  6
Continuous
 62
     3
100
AcDbLine
 10
44.5
 20
310.452686732482
 30
0.0
 11
23.6699159508474
 21
310.452686732482
 31
0.0
  0
LINE
  5
3AA
330
1F
100
AcDbEntity
  8
100
  6
Continuous
 62
     3
100
AcDbLine
 10
44.5
 20
272.452686732482
 30
0.0
 11
23.5
 21
272.452686732482
 31
0.0
  0
LINE
  5
3AB
330
1F
100
AcDbEntity
  8
100
  6
Continuous
 62
     3
100
AcDbLine
 10
91.0
 20
278.529999232482
 30
0.0
 11
91.0
 21
304.375374232482
 31
0.0
  0
LINE
  5
3AC
330
1F
100
AcDbEntity
  8
2
  6
Continuous
 62
     3
100
AcDbLine
 10
72.0
 20
303.807124232482
 30
0.0
 11
91.0
 21
303.213374232482
 31
0.0
  0
LINE
  5
3AD
330
1F
100
AcDbEntity
  8
2
  6
Continuous
 62
     3
100
AcDbLine
 10
72.0
 20
279.098249232482
 30
0.0
 11
91.0
 21
279.691999232482
 31
0.0
  0
LINE
  5
3AE
330
1F
100
AcDbEntity
  8
100
  6
Continuous
 62
     3
100
AcDbLine
 10
91.0
 20
278.529999232482
 30
0.0
 11
85.3260000000002
 21
278.352686732482
 31
0.0
  0
LINE
  5
3AF
330
1F
100
AcDbEntity
  8
100
  6
Continuous
 62
     3
100
AcDbLine
 10
91.0
 20
304.375374232482
 30
0.0
 11
85.3260000000002
 21
304.552686732482
 31
0.0
  0
LINE
  5
3B0
330
1F
100
AcDbEntity
  8
100
  6
Continuous
 62
     3
100
AcDbLine
 10
85.3260000000002
 20
278.352686732482
 30
0.0
 11
44.5
 21
278.352686732482
 31
0.0
  0
LINE
  5
3B1
330
1F
100
AcDbEntity
  8
100
  6
Continuous
 62
     3
100
AcDbLine
 10
85.3260000000002
 20
304.552686732482
 30
0.0
 11
44.5
 21
304.552686732482
 31
0.0
  0
LINE
  5
3B2
330
1F
100
AcDbEntity
  8
100
  6
Continuous
 62
     3
100
AcDbLine
 10
44.5
 20
272.452686732482
 30
0.0
 11
44.5
 21
280.952686732482
 31
0.0
  0
LINE
  5
3B3
330
1F
100
AcDbEntity
  8
100
  6
Continuous
 62
     3
100
AcDbLine
 10
72.0
 20
278.352686732482
 30
0.0
 11
72.0
 21
280.964561732482
 31
0.0
  0
LINE
  5
3B4
330
1F
100
AcDbEntity
  8
100
  6
Continuous
 62
     3
100
AcDbLine
 10
-44.4999999999989
 20
310.452686732482
 30
0.0
 11
-23.5
 21
310.452686732482
 31
0.0
  0
LINE
  5
3B5
330
1F
100
AcDbEntity
  8
100
  6
Continuous
 62
     3
100
AcDbLine
 10
-44.4999999999989
 20
272.452686732482
 30
0.0
 11
-23.669923580242
 21
272.452686732482
 31
0.0
  0
LINE
  5
3B6
330
1F
100
AcDbEntity
  8
100
  6
Continuous
 62
     3
100
AcDbLine
 10
-85.3259999999991
 20
278.352686732482
 30
0.0
 11
-44.4999999999989
 21
278.352686732482
 31
0.0
  0
LINE
  5
3B7
330
1F
100
AcDbEntity
  8
100
  6
Continuous
 62
     3
100
AcDbLine
 10
-85.3259999999991
 20
304.552686732482
 30
0.0
 11
-44.4999999999989
 21
304.552686732482
 31
0.0
  0
LINE
  5
3B8
330
1F
100
AcDbEntity
  8
100
  6
Continuous
 62
     3
100
AcDbLine
 10
-44.4999999999989
 20
272.452686732482
 30
0.0
 11
-44.4999999999989
 21
280.952686732482
 31
0.0
  0
LINE
  5
3B9
330
1F
100
AcDbEntity
  8
2
  6
Continuous
 62
     3
100
AcDbLine
 10
-71.9999999999989
 20
303.807124232482
 30
0.0
 11
-90.9999999999989
 21
303.213374232482
 31
0.0
  0
LINE
  5
3BA
330
1F
100
AcDbEntity
  8
2
  6
Continuous
 62
     3
100
AcDbLine
 10
-71.9999999999989
 20
279.098249232482
 30
0.0
 11
-90.9999999999989
 21
279.691999232482
 31
0.0
  0
LINE
  5
3BB
330
1F
100
AcDbEntity
  8
100
  6
Continuous
 62
     3
100
AcDbLine
 10
-90.9999999999989
 20
278.529999232482
 30
0.0
 11
-85.3259999999991
 21
278.352686732482
 31
0.0
  0
LINE
  5
3BC
330
1F
100
AcDbEntity
  8
100
  6
Continuous
 62
     3
100
AcDbLine
 10
-90.9999999999989
 20
278.529999232482
 30
0.0
 11
-90.9999999999989
 21
304.375374232482
 31
0.0
  0
LINE
  5
3BD
330
1F
100
AcDbEntity
  8
100
  6
Continuous
 62
     3
100
AcDbLine
 10
-90.9999999999989
 20
304.375374232482
 30
0.0
 11
-85.3259999999991
 21
304.552686732482
 31
0.0
  0
LINE
  5
3BE
330
1F
100
AcDbEntity
  8
100
  6
Continuous
 62
     3
100
AcDbLine
 10
-71.9999999999989
 20
278.352686732482
 30
0.0
 11
-71.9999999999989
 21
280.952686732482
 31
0.0
  0
LINE
  5
3BF
330
1F
100
AcDbEntity
  8
2
  6
DOT_CENTER
 62
     1
100
AcDbLine
 10
0.0
 20
326.563848585474
 30
0.0
 11
0.0
 21
252.891758155148
 31
0.0
  0
LINE
  5
3C0
330
1F
100
AcDbEntity
  8
2
  6
DOT_CENTER
 62
     1
100
AcDbLine
 10
-98.5555959721436
 20
291.452686732482
 30
0.0
 11
98.5645756651956
 21
291.452686732482
 31
0.0
  0
LINE
  5
3C1
330
1F
100
AcDbEntity
  8
100
  6
CENTER
 62
     6
100
AcDbLine
 10
30.7591461185647
 20
322.211828969257
 30
0.0
 11
21.9203086563348
 21
313.372991507026
 31
0.0
  0
LINE
  5
3C2
330
1F
100
AcDbEntity
  8
100
  6
PHANTOM
 62
     6
100
AcDbLine
 10
65.918263046113
 20
342.914147755446
 30
0.0
 11
51.4614649047542
 21
357.370945896805
 31
0.0
  0
LINE
  5
3C3
330
1F
100
AcDbEntity
  8
2
  6
PHANTOM
 62
     6
100
AcDbLine
 10
54.8214595522573
 20
332.797747813705
 30
0.0
 11
65.0966049663744
 21
343.735805835185
 31
0.0
  0
LINE
  5
3C4
330
1F
100
AcDbEntity
  8
2
  6
PHANTOM
 62
     6
100
AcDbLine
 10
41.3450649630135
 20
346.274142402949
 30
0.0
 11
52.2831229844929
 21
356.549287817066
 31
0.0
  0
LINE
  5
3C5
330
1F
100
AcDbEntity
  8
100
  6
PHANTOM
 62
     6
100
AcDbLine
 10
65.918263046113
 20
342.914147755446
 30
0.0
 11
59.8353769609558
 21
336.43881740673
 31
0.0
  0
LINE
  5
3C6
330
1F
100
AcDbEntity
  8
100
  6
PHANTOM
 62
     6
100
AcDbLine
 10
51.4614649047542
 20
357.370945896805
 30
0.0
 11
44.9861345560383
 21
351.288059811647
 31
0.0
  0
LINE
  5
3C7
330
1F
100
AcDbEntity
  8
100
  6
PHANTOM
 62
     6
100
AcDbLine
 10
41.7193012269565
 20
311.251673860865
 30
0.0
 11
27.8139719040474
 21
297.346344537956
 31
0.0
  0
LINE
  5
3C8
330
1F
100
AcDbEntity
  8
100
  6
PHANTOM
 62
     6
100
AcDbLine
 10
19.7989910101736
 20
333.171984077648
 30
0.0
 11
5.87913357104384
 21
319.252126638518
 31
0.0
  0
LINE
  5
3C9
330
1F
100
AcDbEntity
  8
100
  6
PHANTOM
 62
     6
100
AcDbLine
 10
59.8353769609558
 20
336.43881740673
 30
0.0
 11
38.1837673210238
 21
314.787207766798
 31
0.0
  0
LINE
  5
3CA
330
1F
100
AcDbEntity
  8
100
  6
PHANTOM
 62
     6
100
AcDbLine
 10
44.9861345560383
 20
351.288059811647
 30
0.0
 11
23.3345249161063
 21
329.636450171715
 31
0.0
  0
LINE
  5
3CB
330
1F
100
AcDbEntity
  8
100
  6
PHANTOM
 62
     6
100
AcDbLine
 10
41.7193012269565
 20
311.251673860865
 30
0.0
 11
19.7989910101736
 21
333.171984077648
 31
0.0
  0
LINE
  5
3CC
330
1F
100
AcDbEntity
  8
100
  6
PHANTOM
 62
     6
100
AcDbLine
 10
55.5078834600942
 20
332.111323905868
 30
0.0
 11
40.6586410551767
 21
346.960566310786
 31
0.0
  0
LINE
  5
3CD
330
1F
100
AcDbEntity
  8
100
  6
Continuous
 62
     3
100
AcDbLine
 10
43.5000004642838
 20
275.952686732482
 30
0.0
 11
23.8348906564416
 21
275.952686732482
 31
0.0
  0
LINE
  5
3CE
330
1F
100
AcDbEntity
  8
100
  6
Continuous
 62
     3
100
AcDbLine
 10
43.5000004642838
 20
275.952686732482
 30
0.0
 11
43.5000004642839
 21
306.952686732482
 31
0.0
  0
LINE
  5
3CF
330
1F
100
AcDbEntity
  8
100
  6
Continuous
 62
     3
100
AcDbLine
 10
43.5000004642839
 20
306.952686732482
 30
0.0
 11
23.8143477384401
 21
306.952686732482
 31
0.0
  0
LINE
  5
3D0
330
1F
100
AcDbEntity
  8
100
  6
Continuous
 62
     3
100
AcDbLine
 10
74.1200004642837
 20
301.952686732482
 30
0.0
 11
43.5000004642838
 21
301.952686732482
 31
0.0
  0
LINE
  5
3D1
330
1F
100
AcDbEntity
  8
100
  6
Continuous
 62
     3
100
AcDbLine
 10
74.1200004642837
 20
280.952686732482
 30
0.0
 11
43.5000004642838
 21
280.952686732482
 31
0.0
  0
LINE
  5
3D2
330
1F
100
AcDbEntity
  8
100
  6
Continuous
 62
     3
100
AcDbLine
 10
68.0000004642839
 20
280.952686732482
 30
0.0
 11
68.0000004642839
 21
301.952686732482
 31
0.0
  0
LINE
  5
3D3
330
1F
100
AcDbEntity
  8
100
  6
Continuous
 62
     3
100
AcDbLine
 10
83.0000004642838
 20
301.675186732482
 30
0.0
 11
74.1200004642837
 21
301.952686732482
 31
0.0
  0
LINE
  5
3D4
330
1F
100
AcDbEntity
  8
100
  6
Continuous
 62
     3
100
AcDbLine
 10
83.0000004642838
 20
281.230186732482
 30
0.0
 11
74.1200004642837
 21
280.952686732482
 31
0.0
  0
LINE
  5
3D5
330
1F
100
AcDbEntity
  8
2
  6
Continuous
 62
     3
100
AcDbLine
 10
68.0000004642839
 20
300.981936732482
 30
0.0
 11
83.0000004642838
 21
300.513186732482
 31
0.0
  0
LINE
  5
3D6
330
1F
100
AcDbEntity
  8
2
  6
Continuous
 62
     3
100
AcDbLine
 10
68.0000004642839
 20
281.923436732482
 30
0.0
 11
83.0000004642838
 21
282.392186732482
 31
0.0
  0
LINE
  5
3D7
330
1F
100
AcDbEntity
  8
100
  6
Continuous
 62
     3
100
AcDbLine
 10
83.0000004642838
 20
281.230186732482
 30
0.0
 11
83.0000004642838
 21
301.675186732482
 31
0.0
  0
LINE
  5
3D8
330
1F
100
AcDbEntity
  8
100
  6
Continuous
 62
     3
100
AcDbLine
 10
-68.0000004642838
 20
280.952686732482
 30
0.0
 11
-68.0000004642838
 21
301.952686732482
 31
0.0
  0
LINE
  5
3D9
330
1F
100
AcDbEntity
  8
100
  6
Continuous
 62
     3
100
AcDbLine
 10
-83.0000004642838
 20
301.675186732482
 30
0.0
 11
-74.1200004642836
 21
301.952686732482
 31
0.0
  0
LINE
  5
3DA
330
1F
100
AcDbEntity
  8
100
  6
Continuous
 62
     3
100
AcDbLine
 10
-83.0000004642838
 20
281.230186732482
 30
0.0
 11
-83.0000004642838
 21
301.675186732482
 31
0.0
  0
LINE
  5
3DB
330
1F
100
AcDbEntity
  8
100
  6
Continuous
 62
     3
100
AcDbLine
 10
-83.0000004642838
 20
281.230186732482
 30
0.0
 11
-74.1200004642837
 21
280.952686732482
 31
0.0
  0
LINE
  5
3DC
330
1F
100
AcDbEntity
  8
100
  6
Continuous
 62
     3
100
AcDbLine
 10
-74.1200004642836
 20
301.952686732482
 30
0.0
 11
-43.5000004642837
 21
301.952686732482
 31
0.0
  0
LINE
  5
3DD
330
1F
100
AcDbEntity
  8
2
  6
Continuous
 62
     3
100
AcDbLine
 10
-68.0000004642838
 20
300.981936732482
 30
0.0
 11
-83.0000004642838
 21
300.513186732482
 31
0.0
  0
LINE
  5
3DE
330
1F
100
AcDbEntity
  8
2
  6
Continuous
 62
     3
100
AcDbLine
 10
-68.0000004642838
 20
281.923436732482
 30
0.0
 11
-83.0000004642838
 21
282.392186732482
 31
0.0
  0
LINE
  5
3DF
330
1F
100
AcDbEntity
  8
100
  6
Continuous
 62
     3
100
AcDbLine
 10
-74.1200004642837
 20
280.952686732482
 30
0.0
 11
-43.5000004642838
 21
280.952686732482
 31
0.0
  0
LINE
  5
3E0
330
1F
100
AcDbEntity
  8
100
  6
Continuous
 62
     3
100
AcDbLine
 10
-43.5000004642838
 20
275.952686732482
 30
0.0
 11
-43.5000004642837
 21
306.952686732482
 31
0.0
  0
LINE
  5
3E1
330
1F
100
AcDbEntity
  8
100
  6
Continuous
 62
     3
100
AcDbLine
 10
-43.5000004642838
 20
275.952686732482
 30
0.0
 11
-24.0
 21
275.952686732482
 31
0.0
  0
LINE
  5
3E2
330
1F
100
AcDbEntity
  8
100
  6
Continuous
 62
     3
100
AcDbLine
 10
-43.5000004642837
 20
306.952686732482
 30
0.0
 11
-24.0
 21
306.952686732482
 31
0.0
  0
LINE
  5
3E3
330
1F
100
AcDbEntity
  8
100
  6
Continuous
 62
     3
100
AcDbLine
 10
-44.4999999999989
 20
301.952686732482
 30
0.0
 11
-44.4999999999989
 21
310.452686732482
 31
0.0
  0
LINE
  5
3E4
330
1F
100
AcDbEntity
  8
100
  6
Continuous
 62
     3
100
AcDbLine
 10
-71.9999999999989
 20
301.952686732482
 30
0.0
 11
-71.9999999999989
 21
304.552686732482
 31
0.0
  0
LINE
  5
3E5
330
1F
100
AcDbEntity
  8
100
  6
Continuous
 62
     3
100
AcDbLine
 10
44.5
 20
301.952686732482
 30
0.0
 11
44.5
 21
310.452686732482
 31
0.0
  0
LINE
  5
3E6
330
1F
100
AcDbEntity
  8
100
  6
Continuous
 62
     3
100
AcDbLine
 10
72.0
 20
301.940811732482
 30
0.0
 11
72.0
 21
304.552686732482
 31
0.0
  0
LINE
  5
3E7
330
1F
100
AcDbEntity
  8
100
  6
Continuous
 62
     3
100
AcDbLine
 10
43.5000004642839
 20
291.452686732482
 30
0.0
 11
30.9999961853027
 21
291.452686732482
 31
0.0
  0
LINE
  5
3E8
330
1F
100
AcDbEntity
  8
100
  6
Continuous
 62
     3
100
AcDbLine
 10
-43.5000004642838
 20
291.452686732482
 30
0.0
 11
-31.0000038146973
 21
291.452686732482
 31
0.0
  0
LINE
  5
3E9
330
1F
100
AcDbEntity
  8
100
  6
PHANTOM
 62
     6
100
AcDbLine
 10
-55.503389731778
 20
250.798535523832
 30
0.0
 11
-40.6541473268601
 21
235.949293118914
 31
0.0
  0
LINE
  5
3EA
330
1F
100
AcDbEntity
  8
100
  6
PHANTOM
 62
     6
100
AcDbLine
 10
-59.830883232639
 20
246.47104202297
 30
0.0
 11
-65.9137693177971
 21
239.995711674254
 31
0.0
  0
LINE
  5
3EB
330
1F
100
AcDbEntity
  8
100
  6
PHANTOM
 62
     6
100
AcDbLine
 10
-44.9816408277221
 20
231.621799618053
 30
0.0
 11
-51.4569711764381
 21
225.538913532895
 31
0.0
  0
LINE
  5
3EC
330
1F
100
AcDbEntity
  8
2
  6
PHANTOM
 62
     6
100
AcDbLine
 10
-65.0921112380581
 20
239.174053594516
 30
0.0
 11
-54.816965823941
 21
250.112111615995
 31
0.0
  0
LINE
  5
3ED
330
1F
100
AcDbEntity
  8
2
  6
PHANTOM
 62
     6
100
AcDbLine
 10
-52.2786292561771
 20
226.360571612634
 30
0.0
 11
-41.3405712346971
 21
236.635717026751
 31
0.0
  0
LINE
  5
3EE
330
1F
100
AcDbEntity
  8
100
  6
PHANTOM
 62
     6
100
AcDbLine
 10
-65.9137693177971
 20
239.995711674254
 30
0.0
 11
-51.4569711764381
 21
225.538913532895
 31
0.0
  0
LINE
  5
3EF
330
1F
100
AcDbEntity
  8
100
  6
PHANTOM
 62
     6
100
AcDbLine
 10
-23.33003118779
 20
253.273409257985
 30
0.0
 11
-44.9816408277221
 21
231.621799618053
 31
0.0
  0
LINE
  5
3F0
330
1F
100
AcDbEntity
  8
100
  6
PHANTOM
 62
     6
100
AcDbLine
 10
-38.1792735927069
 20
268.122651662902
 30
0.0
 11
-59.830883232639
 21
246.47104202297
 31
0.0
  0
LINE
  5
3F1
330
1F
100
AcDbEntity
  8
100
  6
PHANTOM
 62
     6
100
AcDbLine
 10
-27.7949500595099
 20
285.578043007964
 30
0.0
 11
-41.7148074986399
 21
271.658185568835
 31
0.0
  0
LINE
  5
3F2
330
1F
100
AcDbEntity
  8
100
  6
PHANTOM
 62
     6
100
AcDbLine
 10
-41.7148074986399
 20
271.658185568835
 30
0.0
 11
-19.7944972818571
 21
249.737875352052
 31
0.0
  0
LINE
  5
3F3
330
1F
100
AcDbEntity
  8
100
  6
PHANTOM
 62
     6
100
AcDbLine
 10
-5.88916795894767
 20
263.643204674961
 30
0.0
 11
-19.7944972818571
 21
249.737875352052
 31
0.0
  0
LINE
  5
3F4
330
1F
100
AcDbEntity
  8
2
  6
DOT_CENTER
 62
     1
100
AcDbLine
 10
-62.6346068520543
 20
228.818075998638
 30
0.0
 11
60.8111843189939
 21
352.263867169684
 31
0.0
  0
LINE
  5
3F5
330
1F
100
AcDbEntity
  8
100
  6
CENTER
 62
     6
100
AcDbLine
 10
-21.915814928018
 20
269.536867922673
 30
0.0
 11
-30.7546523902488
 21
260.698030460444
 31
0.0
  0
LINE
  5
3F6
330
1F
100
AcDbEntity
  8
3
  6
Continuous
 62
     3
100
AcDbLine
 10
-178.325341679161
 20
-34.4999999999994
 30
0.0
 11
-178.325341679161
 21
-38.4999999999994
 31
0.0
  0
ARC
  5
3F7
330
1F
100
AcDbEntity
  8
1
  6
Continuous
 62
     3
100
AcDbCircle
 10
13.8564064605509
 20
94.0625000000003
 30
0.0
 40
4.937499999999686
100
AcDbArc
 50
44.12312106205432
 51
135.8768789379448
  0
ARC
  5
3F8
330
1F
100
AcDbEntity
  8
1
  6
Continuous
 62
     3
100
AcDbCircle
 10
-0.00000000000011
 20
81.5000000000013
 30
0.0
 40
17.49999999999867
100
AcDbArc
 50
66.10449181383625
 51
113.8955081861631
  0
ARC
  5
3F9
330
1F
100
AcDbEntity
  8
1
  6
Continuous
 62
     3
100
AcDbCircle
 10
-13.8564064605509
 20
94.0624999999997
 30
0.0
 40
4.937499999999957
100
AcDbArc
 50
44.12312106206092
 51
135.8768789379407
  0
ARC
  5
3FA
330
1F
100
AcDbEntity
  8
3
  6
Continuous
 62
     3
100
AcDbCircle
 10
-11.6913429510897
 20
110.281217407532
 30
0.0
 40
7.767209249456962
100
AcDbArc
 50
59.8848603890205
 51
108.6661085862571
  0
ARC
  5
3FB
330
1F
100
AcDbEntity
  8
3
  6
Continuous
 62
     3
100
AcDbCircle
 10
11.6913429510894
 20
110.281217407532
 30
0.0
 40
7.767209249456798
100
AcDbArc
 50
71.33389141374505
 51
120.1151396109769
  0
ARC
  5
3FC
330
1F
100
AcDbEntity
  8
3
  6
Continuous
 62
     3
100
AcDbCircle
 10
0.0
 20
88.5522296446398
 30
0.0
 40
29.4961970123491
100
AcDbArc
 50
74.67789239546327
 51
105.3221076045365
  0
ARC
  5
3FD
330
1F
100
AcDbEntity
  8
3
  6
Continuous
 62
     3
100
AcDbCircle
 10
-19.0
 20
126.400073201234
 30
0.0
 40
10.00000000000011
100
AcDbArc
 50
289.9472142336069
 51
0.0
  0
ARC
  5
3FE
330
1F
100
AcDbEntity
  8
3
  6
Continuous
 62
     3
100
AcDbCircle
 10
18.9999999999994
 20
126.400073201234
 30
0.0
 40
9.9999999999994
100
AcDbArc
 50
180.0
 51
250.0527857663941
  0
ARC
  5
3FF
330
1F
100
AcDbEntity
  8
3
  6
Continuous
 62
     3
100
AcDbCircle
 10
15.9999999999994
 20
102.0
 30
0.0
 40
1.0
100
AcDbArc
 50
0.0
 51
90.0
  0
ARC
  5
400
330
1F
100
AcDbEntity
  8
3
  6
Continuous
 62
     3
100
AcDbCircle
 10
-16.0
 20
102.0
 30
0.0
 40
1.0
100
AcDbArc
 50
90.0
 51
180.0
  0
ARC
  5
401
330
1F
100
AcDbEntity
  8
3
  6
Continuous
 62
     3
100
AcDbCircle
 10
13.9999999999994
 20
29.0
 30
0.0
 40
2.0
100
AcDbArc
 50
270.0
 51
0.0
  0
ARC
  5
402
330
1F
100
AcDbEntity
  8
3
  6
Continuous
 62
     3
100
AcDbCircle
 10
-14.0
 20
29.0
 30
0.0
 40
2.0
100
AcDbArc
 50
180.0
 51
270.0
  0
ARC
  5
403
330
1F
100
AcDbEntity
  8
3
  6
Continuous
 62
     3
100
AcDbCircle
 10
-25.0
 20
161.044738518464
 30
0.0
 40
5.99999999999901
100
AcDbArc
 50
106.8980453281985
 51
180.0
  0
ARC
  5
404
330
1F
100
AcDbEntity
  8
3
  6
PHANTOM
 62
     6
100
AcDbCircle
 10
24.9999999999994
 20
150.544738518464
 30
0.0
 40
6.0
100
AcDbArc
 50
0.0
 51
73.10195467180337
  0
ARC
  5
405
330
1F
100
AcDbEntity
  8
3
  6
Continuous
 62
     3
100
AcDbCircle
 10
24.9999999999994
 20
161.044738518464
 30
0.0
 40
6.0
100
AcDbArc
 50
0.0
 51
73.10195467180337
  0
ARC
  5
406
330
1F
100
AcDbEntity
  8
0
  6
Continuous
 62
     3
100
AcDbCircle
 10
21.6000002576193
 20
39.9000000339124
 30
0.0
 40
1.600000018195606
100
AcDbArc
 50
89.99999545513766
 51
154.611399809972
  0
ARC
  5
407
330
1F
100
AcDbEntity
  8
0
  6
Continuous
 62
     3
100
AcDbCircle
 10
21.600000772019
 20
60.100000459918
 30
0.0
 40
1.600000568181711
100
AcDbArc
 50
205.3886013756225
 51
269.9999834390368
  0
ARC
  5
408
330
1F
100
AcDbEntity
  8
0
  6
Continuous
 62
     3
100
AcDbCircle
 10
-21.6000007720218
 20
79.100000459918
 30
0.0
 40
1.600000568181766
100
AcDbArc
 50
270.0000165609632
 51
334.6113986243795
  0
ARC
  5
409
330
1F
100
AcDbEntity
  8
0
  6
Continuous
 62
     3
100
AcDbCircle
 10
-21.6000002576221
 20
58.9000000339124
 30
0.0
 40
1.600000018195634
100
AcDbArc
 50
25.38860019002798
 51
90.00000454486235
  0
ARC
  5
40A
330
1F
100
AcDbEntity
  8
100
  6
Continuous
 62
     3
100
AcDbCircle
 10
-14.54715140292
 20
-18.696553874564
 30
0.0
 40
2.000000000000507
100
AcDbArc
 50
17.6647034925259
 51
59.99999999998744
  0
ARC
  5
40B
330
1F
100
AcDbEntity
  8
100
  6
Continuous
 62
     3
100
AcDbCircle
 10
-17.803847577293
 20
-17.971
 30
0.0
 40
2.999999999999726
100
AcDbArc
 50
59.99999999999698
 51
99.34521045598235
  0
ARC
  5
40C
330
1F
100
AcDbEntity
  8
100
  6
Continuous
 62
     3
100
AcDbCircle
 10
-18.5
 20
-16.999865569725
 30
0.0
 40
1.999999999999498
100
AcDbArc
 50
84.00149543309921
 51
164.041991379124
  0
ARC
  5
40D
330
1F
100
AcDbEntity
  8
100
  6
Continuous
 62
     3
100
AcDbCircle
 10
18.401466494669
 20
-12.000836549173
 30
0.0
 40
3.00000000000034
100
AcDbArc
 50
264.2836812776589
 51
271.1291838944636
  0
ARC
  5
40E
330
1F
100
AcDbEntity
  8
100
  6
Continuous
 62
     3
100
AcDbCircle
 10
17.803847577293
 20
-17.971
 30
0.0
 40
2.999999999999345
100
AcDbArc
 50
84.28368127765688
 51
120.000000000003
  0
ARC
  5
40F
330
1F
100
AcDbEntity
  8
100
  6
Continuous
 62
     3
100
AcDbCircle
 10
18.401466494669
 20
12.000836549172
 30
0.0
 40
3.000000000000443
100
AcDbArc
 50
88.87081610553665
 51
95.71631872234096
  0
ARC
  5
410
330
1F
100
AcDbEntity
  8
100
  6
Continuous
 62
     3
100
AcDbCircle
 10
-18.401466494669
 20
12.000836549172
 30
0.0
 40
3.00000000000054
100
AcDbArc
 50
84.28368127765924
 51
91.12918389446357
  0
ARC
  5
411
330
1F
100
AcDbEntity
  8
100
  6
Continuous
 62
     3
100
AcDbCircle
 10
18.401466494669
 20
12.000836549172
 30
0.0
 40
3.000000000000443
100
AcDbArc
 50
88.87081610553665
 51
95.71631872234096
  0
ARC
  5
412
330
1F
100
AcDbEntity
  8
100
  6
Continuous
 62
     3
100
AcDbCircle
 10
18.401466494669
 20
12.000836549172
 30
0.0
 40
3.000000000000443
100
AcDbArc
 50
88.87081610553665
 51
95.71631872234096
  0
ARC
  5
413
330
1F
100
AcDbEntity
  8
100
  6
Continuous
 62
     3
100
AcDbCircle
 10
-17.803847577293
 20
17.9709999999998
 30
0.0
 40
2.999999999999942
100
AcDbArc
 50
264.283681277658
 51
299.9999999999991
  0
ARC
  5
414
330
1F
100
AcDbEntity
  8
100
  6
Continuous
 62
     3
100
AcDbCircle
 10
17.803847577293
 20
17.9709999999998
 30
0.0
 40
3.000000000000074
100
AcDbArc
 50
240.0000000000009
 51
275.7163187223418
  0
ARC
  5
415
330
1F
100
AcDbEntity
  8
100
  6
Continuous
 62
     3
100
AcDbCircle
 10
-15.5
 20
19.301127018922
 30
0.0
 40
3.000000000000071
100
AcDbArc
 50
299.9999999999992
 51
354.4614309192556
  0
ARC
  5
416
330
1F
100
AcDbEntity
  8
100
  6
Continuous
 62
     3
100
AcDbCircle
 10
15.5
 20
19.301127018922
 30
0.0
 40
3.0
100
AcDbArc
 50
180.0
 51
240.0000000000007
  0
ARC
  5
417
330
1F
100
AcDbEntity
  8
100
  6
Continuous
 62
     3
100
AcDbCircle
 10
14.54715140292
 20
-18.696553874564
 30
0.0
 40
1.999999999999241
100
AcDbArc
 50
120.0000000000126
 51
162.3352965074745
  0
ARC
  5
418
330
1F
100
AcDbEntity
  8
100
  6
Continuous
 62
     3
100
AcDbCircle
 10
-15.5
 20
-19.0
 30
0.0
 40
3.000000000000191
100
AcDbArc
 50
279.5940682268598
 51
17.66470349253818
  0
ARC
  5
419
330
1F
100
AcDbEntity
  8
100
  6
Continuous
 62
     3
100
AcDbCircle
 10
15.5
 20
-19.0
 30
0.0
 40
2.999999999998963
100
AcDbArc
 50
162.3352965074621
 51
260.4059317731401
  0
ARC
  5
41A
330
1F
100
AcDbEntity
  8
100
  6
Continuous
 62
     3
100
AcDbCircle
 10
-18.5
 20
16.999865569725
 30
0.0
 40
2.000000000000495
100
AcDbArc
 50
195.9580086208843
 51
271.1291838944441
  0
ARC
  5
41B
330
1F
100
AcDbEntity
  8
100
  6
Continuous
 62
     3
100
AcDbCircle
 10
18.5
 20
-16.999865569725
 30
0.0
 40
1.999999999999453
100
AcDbArc
 50
15.9580086208839
 51
91.12918389444464
  0
ARC
  5
41C
330
1F
100
AcDbEntity
  8
100
  6
Continuous
 62
     3
100
AcDbCircle
 10
18.5
 20
16.999865569725
 30
0.0
 40
1.999999999999947
100
AcDbArc
 50
268.8708161055557
 51
344.0419913791134
  0
ARC
  5
41D
330
1F
100
AcDbEntity
  8
3
  6
PHANTOM
 62
     6
100
AcDbCircle
 10
-25.0
 20
150.544738518464
 30
0.0
 40
5.999999999999039
100
AcDbArc
 50
106.8980453281994
 51
180.0
  0
ARC
  5
41E
330
1F
100
AcDbEntity
  8
1
  6
Continuous
 62
     3
100
AcDbCircle
 10
-205.42534167916
 20
-17.5
 30
0.0
 40
1.5
100
AcDbArc
 50
0.0
 51
90.0
  0
ARC
  5
41F
330
1F
100
AcDbEntity
  8
1
  6
Continuous
 62
     3
100
AcDbCircle
 10
-177.42534167916
 20
-17.5
 30
0.0
 40
1.5
100
AcDbArc
 50
90.0
 51
180.0
  0
ARC
  5
420
330
1F
100
AcDbEntity
  8
1
  6
Continuous
 62
     3
100
AcDbCircle
 10
-206.92534167916
 20
-19.0
 30
0.0
 40
2.999999999999991
100
AcDbArc
 50
279.5940682268605
 51
0.0
  0
ARC
  5
421
330
1F
100
AcDbEntity
  8
1
  6
Continuous
 62
     3
100
AcDbCircle
 10
-175.92534167916
 20
-19.0
 30
0.0
 40
3.0
100
AcDbArc
 50
180.0
 51
260.4059317731395
  0
ARC
  5
422
330
1F
100
AcDbEntity
  8
1
  6
Continuous
 62
     3
100
AcDbCircle
 10
-205.42534167916
 20
-15.0
 30
0.0
 40
1.0
100
AcDbArc
 50
180.0
 51
270.0
  0
ARC
  5
423
330
1F
100
AcDbEntity
  8
1
  6
Continuous
 62
     3
100
AcDbCircle
 10
-177.42534167916
 20
-15.0
 30
0.0
 40
1.0
100
AcDbArc
 50
270.0
 51
0.0
  0
ARC
  5
424
330
1F
100
AcDbEntity
  8
1
  6
Continuous
 62
     3
100
AcDbCircle
 10
-177.42534167916
 20
29.0
 30
0.0
 40
2.0
100
AcDbArc
 50
270.0
 51
0.0
  0
ARC
  5
425
330
1F
100
AcDbEntity
  8
1
  6
Continuous
 62
     3
100
AcDbCircle
 10
-205.42534167916
 20
29.0
 30
0.0
 40
2.0
100
AcDbArc
 50
180.0
 51
270.0
  0
ARC
  5
426
330
1F
100
AcDbEntity
  8
3
  6
Continuous
 62
     3
100
AcDbCircle
 10
-166.42534167916
 20
161.044738518464
 30
0.0
 40
5.999999999999005
100
AcDbArc
 50
0.0
 51
73.10195467181255
  0
ARC
  5
427
330
1F
100
AcDbEntity
  8
3
  6
Continuous
 62
     3
100
AcDbCircle
 10
-216.42534167916
 20
161.044738518464
 30
0.0
 40
5.999999999999247
100
AcDbArc
 50
106.8980453282059
 51
180.0
  0
ARC
  5
428
330
1F
100
AcDbEntity
  8
3
  6
Continuous
 62
     3
100
AcDbCircle
 10
-207.42534167916
 20
102.0
 30
0.0
 40
1.0
100
AcDbArc
 50
90.0
 51
180.0
  0
ARC
  5
429
330
1F
100
AcDbEntity
  8
3
  6
Continuous
 62
     3
100
AcDbCircle
 10
-175.425341679161
 20
102.0
 30
0.0
 40
1.0
100
AcDbArc
 50
0.0
 51
90.0
  0
ARC
  5
42A
330
1F
100
AcDbEntity
  8
3
  6
Continuous
 62
     3
100
AcDbCircle
 10
-172.425341679161
 20
126.400073201234
 30
0.0
 40
9.999999999999005
100
AcDbArc
 50
180.0
 51
236.6329874067898
  0
ARC
  5
42B
330
1F
100
AcDbEntity
  8
3
  6
Continuous
 62
     3
100
AcDbCircle
 10
-210.42534167916
 20
126.400073201234
 30
0.0
 40
10.00000000000002
100
AcDbArc
 50
303.3670125932053
 51
0.0
  0
ARC
  5
42C
330
1F
100
AcDbEntity
  8
100
  6
Continuous
 62
     3
100
AcDbCircle
 10
16.9705589337798
 20
274.482123984005
 30
0.0
 40
7.00000000000014
100
AcDbArc
 50
254.744477257939
 51
15.25552274205947
  0
ARC
  5
42D
330
1F
100
AcDbEntity
  8
100
  6
Continuous
 62
     3
100
AcDbCircle
 10
31.4419884201729
 20
278.428987120769
 30
0.0
 40
8.000000000000133
100
AcDbArc
 50
119.7444772579379
 51
195.2555227420618
  0
ARC
  5
42E
330
1F
100
AcDbEntity
  8
100
  6
Continuous
 62
     3
100
AcDbCircle
 10
23.9999961853028
 20
291.452686732482
 30
0.0
 40
6.99999999999985
100
AcDbArc
 50
299.7444772579366
 51
60.25552274206294
  0
ARC
  5
42F
330
1F
100
AcDbEntity
  8
100
  6
Continuous
 62
     3
100
AcDbCircle
 10
31.4419884201729
 20
304.476386344195
 30
0.0
 40
8.00000000000002
100
AcDbArc
 50
164.7444772579384
 51
240.2555227420627
  0
ARC
  5
430
330
1F
100
AcDbEntity
  8
100
  6
Continuous
 62
     3
100
AcDbCircle
 10
16.9705589337798
 20
308.423249480959
 30
0.0
 40
6.999999999999781
100
AcDbArc
 50
344.7444772579407
 51
105.2555227420618
  0
ARC
  5
431
330
1F
100
AcDbEntity
  8
100
  6
Continuous
 62
     3
100
AcDbCircle
 10
13.0236957970155
 20
322.894678967353
 30
0.0
 40
8.000000000000336
100
AcDbArc
 50
209.7444772579435
 51
285.25552274206
  0
ARC
  5
432
330
1F
100
AcDbEntity
  8
100
  6
Continuous
 62
     3
100
AcDbCircle
 10
-13.0237034264102
 20
322.894678967353
 30
0.0
 40
8.000000000000602
100
AcDbArc
 50
254.74447725794
 51
330.2555227420572
  0
ARC
  5
433
330
1F
100
AcDbEntity
  8
100
  6
Continuous
 62
     3
100
AcDbCircle
 10
-16.9705665631745
 20
308.423249480959
 30
0.0
 40
7.000000000000166
100
AcDbArc
 50
74.74447725793823
 51
195.255522742059
  0
ARC
  5
434
330
1F
100
AcDbEntity
  8
100
  6
Continuous
 62
     3
100
AcDbCircle
 10
-31.4419960495678
 20
304.476386344195
 30
0.0
 40
8.000000000000181
100
AcDbArc
 50
299.7444772579385
 51
15.25552274206144
  0
ARC
  5
435
330
1F
100
AcDbEntity
  8
100
  6
Continuous
 62
     3
100
AcDbCircle
 10
-24.0000038146973
 20
291.452686732482
 30
0.0
 40
7.000000000000047
100
AcDbArc
 50
119.7444772579385
 51
240.2555227420606
  0
ARC
  5
436
330
1F
100
AcDbEntity
  8
100
  6
Continuous
 62
     3
100
AcDbCircle
 10
-31.4419960495676
 20
278.428987120769
 30
0.0
 40
7.999999999999935
100
AcDbArc
 50
344.7444772579378
 51
60.25552274206333
  0
ARC
  5
437
330
1F
100
AcDbEntity
  8
100
  6
Continuous
 62
     3
100
AcDbCircle
 10
-16.9705665631744
 20
274.482123984005
 30
0.0
 40
6.999999999999972
100
AcDbArc
 50
164.7444772579412
 51
285.2555227420602
  0
ARC
  5
438
330
1F
100
AcDbEntity
  8
100
  6
Continuous
 62
     3
100
AcDbCircle
 10
-13.0237034264102
 20
260.010694497611
 30
0.0
 40
8.000000000000485
100
AcDbArc
 50
29.74447725794332
 51
105.2555227420607
  0
ARC
  5
439
330
1F
100
AcDbEntity
  8
100
  6
Continuous
 62
     3
100
AcDbCircle
 10
-0.00000381469727
 20
267.452686732482
 30
0.0
 40
6.999999999999912
100
AcDbArc
 50
209.744477257937
 51
330.2555227420638
  0
ARC
  5
43A
330
1F
100
AcDbEntity
  8
100
  6
Continuous
 62
     3
100
AcDbCircle
 10
13.0236957970155
 20
260.010694497612
 30
0.0
 40
7.999999999999642
100
AcDbArc
 50
74.74447725793738
 51
150.2555227420619
  0
ARC
  5
43B
330
1F
100
AcDbEntity
  8
100
  6
Continuous
 62
     3
100
AcDbCircle
 10
-0.00000381469727
 20
315.452686732482
 30
0.0
 40
6.999999999999923
100
AcDbArc
 50
29.74447725793749
 51
150.2555227420624
  0
CIRCLE
  5
43C
330
1F
100
AcDbEntity
  8
1
  6
Continuous
 62
     3
100
AcDbCircle
 10
-191.42534167916
 20
68.9999999999998
 30
0.0
 40
15.5
  0
CIRCLE
  5
43D
330
1F
100
AcDbEntity
  8
1
  6
Continuous
 62
     3
100
AcDbCircle
 10
-191.42534167916
 20
0.0
 30
0.0
 40
19.0
  0
CIRCLE
  5
43E
330
1F
100
AcDbEntity
  8
1
  6
Continuous
 62
     3
100
AcDbCircle
 10
-191.42534167916
 20
68.9999999999998
 30
0.0
 40
10.5
  0
CIRCLE
  5
43F
330
1F
100
AcDbEntity
  8
1
  6
Continuous
 62
     3
100
AcDbCircle
 10
-191.42534167916
 20
68.9999999999998
 30
0.0
 40
7.499999858999985
  0
CIRCLE
  5
440
330
1F
100
AcDbEntity
  8
1
  6
Continuous
 62
     3
100
AcDbCircle
 10
-191.42534167916
 20
0.0
 30
0.0
 40
9.999999811999999
  0
CIRCLE
  5
441
330
1F
100
AcDbEntity
  8
1
  6
Continuous
 62
     3
100
AcDbCircle
 10
-191.42534167916
 20
0.0
 30
0.0
 40
13.09999999999999
  0
CIRCLE
  5
442
330
1F
100
AcDbEntity
  8
100
  6
Continuous
 62
     3
100
AcDbCircle
 10
0.00000388179046
 20
291.452686732482
 30
0.0
 40
10.00000000000004
  0
CIRCLE
  5
443
330
1F
100
AcDbEntity
  8
1
  6
PHANTOM
 62
     6
100
AcDbCircle
 10
0.00448984652598
 20
291.452686732482
 30
0.0
 40
83.62360592574701
  0
SPLINE
  5
444
330
1F
100
AcDbEntity
  8
1
  6
Continuous
 62
     3
100
AcDbSpline
210
0.0
220
0.0
230
1.0
 70
     8
 71
     3
 72
     9
 73
     5
 74
     3
 42
0.0000000001
 43
0.0000000001
 44
0.00000001
 40
0.0
 40
0.0
 40
0.0
 40
0.0
 40
6.830936892187869
 40
13.66187378437571
 40
13.66187378437571
 40
13.66187378437571
 40
13.66187378437571
 10
-191.425341679161
 20
117.0
 30
0.0
 10
-189.175341670026
 20
117.5242133284946
 30
0.0
 10
-184.675341651756
 20
118.5726399854839
 30
0.0
 10
-180.175341633486
 20
117.5242133284946
 30
0.0
 10
-177.925341624351
 20
117.0
 30
0.0
 11
-191.425341679161
 21
117.0
 31
0.0
 11
-184.675341651756
 21
118.0484266569892
 31
0.0
 11
-177.925341624351
 21
117.0
 31
0.0
  0
SPLINE
  5
445
330
1F
100
AcDbEntity
  8
1
  6
Continuous
 62
     3
100
AcDbSpline
210
0.0
220
0.0
230
1.0
 70
     8
 71
     3
 72
     9
 73
     5
 74
     3
 42
0.0000000001
 43
0.0000000001
 44
0.00000001
 40
0.0
 40
0.0
 40
0.0
 40
0.0
 40
6.830936892187869
 40
13.66187378437574
 40
13.66187378437574
 40
13.66187378437574
 40
13.66187378437574
 10
-204.925341733971
 20
117.0
 30
0.0
 10
-202.675341724836
 20
117.5242133284946
 30
0.0
 10
-198.175341706566
 20
118.5726399854839
 30
0.0
 10
-193.675341688296
 20
117.5242133284946
 30
0.0
 10
-191.425341679161
 20
117.0
 30
0.0
 11
-204.925341733971
 21
117.0
 31
0.0
 11
-198.175341706566
 21
118.0484266569892
 31
0.0
 11
-191.425341679161
 21
117.0
 31
0.0
  0
SPLINE
  5
446
330
1F
100
AcDbEntity
  8
0
  6
Continuous
 62
     3
100
AcDbSpline
210
0.0
220
0.0
230
1.0
 70
     8
 71
     3
 72
    83
 73
    79
 74
    77
 42
0.0000000001
 43
0.0000000001
 44
0.00000001
 40
0.0
 40
0.0
 40
0.0
 40
0.0
 40
0.131995512948877
 40
0.2639910258978847
 40
0.7701152619277272
 40
1.276250676827084
 40
1.78243866077366
 40
2.288621978116458
 40
2.772216623208408
 40
3.25581413376868
 40
3.739361002291255
 40
4.222897929694811
 40
4.49888884196059
 40
4.774877375843995
 40
5.050864831035032
 40
5.326852697239223
 40
5.605869167983345
 40
5.884886532864879
 40
6.163892477466995
 40
6.442894748855644
 40
6.518668229560695
 40
6.594441459755056
 40
6.670213719760699
 40
6.745986038151289
 40
6.814808688773963
 40
6.883631313620057
 40
6.952454207406634
 40
7.021277116191132
 40
7.098449317869528
 40
7.17562153237997
 40
7.25279366362791
 40
7.329965781205151
 40
7.398865988748582
 40
7.467766184802018
 40
7.536666412019466
 40
7.605566651512132
 40
7.68373489088475
 40
7.761903146775128
 40
7.840071372189176
 40
7.91823958121157
 40
7.987144338651985
 40
8.056049082892825
 40
8.124953900466734
 40
8.193858732611565
 40
8.27256826085863
 40
8.351277801407667
 40
8.429987031656546
 40
8.508696265633132
 40
8.577566020571677
 40
8.646435694420543
 40
8.715306232730965
 40
8.784177032022285
 40
9.073908112256843
 40
9.36364383092238
 40
9.653396700937762
 40
9.943148325715015
 40
10.23874573915178
 40
10.53434382854663
 40
10.82993619881946
 40
11.12552797224929
 40
11.39990500752784
 40
11.67428168903367
 40
11.94865628169759
 40
12.22303118334441
 40
12.50367812349798
 40
12.78432452673336
 40
13.06497710286143
 40
13.34563211365102
 40
13.82904448905831
 40
14.31246657223503
 40
14.79593583508441
 40
15.27940230319881
 40
15.78571148447895
 40
16.29202532707511
 40
16.79828732593877
 40
17.30453814100024
 40
17.43665192260821
 40
17.56876570421626
 40
17.56876570421626
 40
17.56876570421626
 40
17.56876570421626
 10
19.3775593818194
 20
58.5686224503857
 30
0.0
 10
19.36200982932547
 20
58.5274631719509
 30
0.0
 10
19.33091072433758
 20
58.44514461508121
 30
0.0
 10
19.24140072623163
 20
58.20454999818868
 30
0.0
 10
19.11181530890122
 20
57.84580073663512
 30
0.0
 10
18.94769518898659
 20
57.36697401556055
 30
0.0
 10
18.79172839777538
 20
56.8854066925507
 30
0.0
 10
18.64652745625719
 20
56.40833089897696
 30
0.0
 10
18.51203480814626
 20
55.93595245599681
 30
0.0
 10
18.38813982212703
 20
55.46848419270307
 30
0.0
 10
18.27312126872364
 20
54.99877194003862
 30
0.0
 10
18.18246100747621
 20
54.59442298906325
 30
0.0
 10
18.1123052732436
 20
54.25644861198361
 30
0.0
 10
18.05938426379139
 20
53.98557421634762
 30
0.0
 10
18.00969297228058
 20
53.7140898703253
 30
0.0
 10
17.9631173663077
 20
53.44102944291637
 30
0.0
 10
17.91975663637649
 20
53.16641721215882
 30
0.0
 10
17.87970137007021
 20
52.89028653588305
 30
0.0
 10
17.84315606087193
 20
52.61367439900388
 30
0.0
 10
17.81817787379414
 20
52.40388893576258
 30
0.0
 10
17.80238875468791
 20
52.26124362419436
 30
0.0
 10
17.79431905088597
 20
52.18590138484531
 30
0.0
 10
17.78651655832677
 20
52.11053141980528
 30
0.0
 10
17.77921221697518
 20
52.03743958646051
 30
0.0
 10
17.77237863741743
 20
51.96662924135668
 30
0.0
 10
17.76598955087924
 20
51.89810360043604
 30
0.0
 10
17.75982300615483
 20
51.82955748789873
 30
0.0
 10
17.75363923925799
 20
51.75821887128437
 30
0.0
 10
17.74747159577983
 20
51.68408571532945
 30
0.0
 10
17.74135502058403
 20
51.60715613815499
 30
0.0
 10
17.73552079647277
 20
51.53020466042697
 30
0.0
 10
17.73016780419317
 20
51.45598245224362
 30
0.0
 10
17.72526222250566
 20
51.38449293053955
 30
0.0
 10
17.72077172495141
 20
51.31573908225248
 30
0.0
 10
17.71650795495858
 20
51.24697078994707
 30
0.0
 10
17.71229032268631
 20
51.17510474791947
 30
0.0
 10
17.70815631146778
 20
51.1001395562202
 30
0.0
 10
17.70414542479145
 20
51.0220741015124
 30
0.0
 10
17.70042813134678
 20
50.94399412560381
 30
0.0
 10
17.69714002607792
 20
50.86898558179148
 30
0.0
 10
17.69424216080217
 20
50.7970512285758
 30
0.0
 10
17.69169752051216
 20
50.72819333031096
 30
0.0
 10
17.68938204885955
 20
50.65932731974415
 30
0.0
 10
17.68719703426485
 20
50.58718721302851
 30
0.0
 10
17.68518238080247
 20
50.51177263151782
 30
0.0
 10
17.68338020247111
 20
50.43308364349026
 30
0.0
 10
17.68187789078561
 20
50.35438845720191
 30
0.0
 10
17.68072566954881
 20
50.27896766530054
 30
0.0
 10
17.67988145454075
 20
50.20682291829289
 30
0.0
 10
17.67930554985004
 20
50.13795521363553
 30
0.0
 10
17.67895975197295
 20
50.06908559656293
 30
0.0
 10
17.67872073575502
 20
49.92659488012654
 30
0.0
 10
17.68024073526491
 20
49.7104795804528
 30
0.0
 10
17.68634451071382
 20
49.42079486312241
 30
0.0
 10
17.69650270480858
 20
49.13121669923255
 30
0.0
 10
17.71080001452771
 20
48.83985722788032
 30
0.0
 10
17.72932051112485
 20
48.54678292488759
 30
0.0
 10
17.75212305975894
 20
48.25205803661854
 30
0.0
 10
17.77904752872594
 20
47.95768315141012
 30
0.0
 10
17.80931468586079
 20
47.67074535831607
 30
0.0
 10
17.84255550181901
 20
47.39125919336346
 30
0.0
 10
17.87840274400306
 20
47.11922758004567
 30
0.0
 10
17.91764605346815
 20
46.84766600143975
 30
0.0
 10
17.96056479849042
 20
46.57454520416319
 30
0.0
 10
18.00720284863606
 20
46.29991384489355
 30
0.0
 10
18.05759089843917
 20
46.02381861015384
 30
0.0
 10
18.11132044290634
 20
45.7483513359026
 30
0.0
 10
18.18206235733912
 20
45.40736503409162
 30
0.0
 10
18.27303904113505
 20
45.00157886122534
 30
0.0
 10
18.38801959793144
 20
44.53198688657316
 30
0.0
 10
18.5118724644158
 20
44.06463893965382
 30
0.0
 10
18.64634179062153
 20
43.59229912203371
 30
0.0
 10
18.79154353148049
 20
43.1151805037921
 30
0.0
 10
18.94754021253145
 20
42.63349029076991
 30
0.0
 10
19.11169443905516
 20
42.15454168446915
 30
0.0
 10
19.24131832502464
 20
41.79567466487686
 30
0.0
 10
19.33086888257053
 20
41.55496599104475
 30
0.0
 10
19.36199590776384
 20
41.47257369675759
 30
0.0
 10
19.3775594203605
 20
41.431377549614
 30
0.0
 11
19.3775593818194
 21
58.5686224503857
 31
0.0
 11
19.33101462409494
 21
58.44510564599452
 31
0.0
 11
19.28496684705323
 21
58.32140270476761
 31
0.0
 11
19.11312351442912
 21
57.84534429308956
 31
0.0
 11
18.94906066267954
 21
57.36653698436178
 31
0.0
 11
18.79315764646069
 21
56.88495570915918
 31
0.0
 11
18.64583113218017
 21
56.40068672507481
 31
0.0
 11
18.51345700317598
 21
55.93556214957702
 31
0.0
 11
18.38961427193278
 21
55.46809072784269
 31
0.0
 11
18.27465663180896
 21
54.99840752073906
 31
0.0
 11
18.16891962947108
 21
54.52657317851769
 31
0.0
 11
18.11283400949395
 21
54.25634108034082
 31
0.0
 11
18.05992245090646
 21
53.98547203854579
 31
0.0
 11
18.01024056155373
 21
53.7139931530074
 31
0.0
 11
17.96384407681097
 21
53.44193310725379
 31
0.0
 11
17.92033375079666
 21
53.16633005488202
 31
0.0
 11
17.88028573367037
 21
52.89020174009035
 31
0.0
 11
17.84374873356677
 21
52.61359847773297
 31
0.0
 11
17.81076938687469
 21
52.33655221781996
 31
0.0
 11
17.80243317113937
 21
52.26123868726022
 31
0.0
 11
17.79436354542871
 21
52.18589637806427
 31
0.0
 11
17.78656118773599
 21
52.11052689749821
 31
0.0
 11
17.77902659040871
 21
52.03513011986547
 31
0.0
 11
17.77241563224845
 21
51.96662572240857
 31
0.0
 11
17.76602665066347
 21
51.89810029205594
 31
0.0
 11
17.75986019487135
 21
51.82955420878255
 31
0.0
 11
17.75391686722825
 21
51.76098840367471
 31
0.0
 11
17.74751856523405
 21
51.68408189911572
 31
0.0
 11
17.74140207659005
 21
51.6071524557334
 31
0.0
 11
17.7355679434997
 21
51.53020116768418
 31
0.0
 11
17.73001669596736
 21
51.45322896892262
 31
0.0
 11
17.72529994276282
 21
51.38449040013671
 31
0.0
 11
17.72080951364883
 21
51.31573668705462
 31
0.0
 11
17.71654581062105
 21
51.24696851020582
 31
0.0
 11
17.7125092391565
 21
51.17818661511011
 31
0.0
 11
17.70820518340224
 21
51.10013695943707
 31
0.0
 11
17.70419435641463
 21
51.02207166948168
 31
0.0
 11
17.7004771241246
 21
50.94399187921248
 31
0.0
 11
17.69705385100264
 21
50.86589866502007
 31
0.0
 11
17.69428031630381
 21
50.79704974997272
 31
0.0
 11
17.69173571629094
 21
50.72819200683755
 31
0.0
 11
17.68942028278757
 21
50.65932610342675
 31
0.0
 11
17.68733425132693
 21
50.59045285487804
 31
0.0
 11
17.68523233935766
 21
50.51177139706904
 31
0.0
 11
17.6834301777319
 21
50.43308249069136
 31
0.0
 11
17.68192788872983
 21
50.35438759851833
 31
0.0
 11
17.68072558718504
 21
50.27568754779296
 31
0.0
 11
17.6799197768567
 21
50.20682250720624
 31
0.0
 11
17.67934390327035
 21
50.13795524106578
 31
0.0
 11
17.67899813140566
 21
50.06908557075304
 31
0.0
 11
17.67888263273468
 21
50.00021486830938
 31
0.0
 11
17.68091835293895
 21
49.71049093989281
 31
0.0
 11
17.68702005697523
 21
49.42081947792514
 31
0.0
 11
17.69717662639781
 21
49.13124466931825
 31
0.0
 11
17.71137654485912
 21
48.8418412028968
 31
0.0
 11
17.73001370949455
 21
48.54683190317074
 31
0.0
 11
17.75281023368145
 21
48.25211415864408
 31
0.0
 11
17.77972833547393
 21
47.95774998765958
 31
0.0
 11
17.81073110995818
 21
47.66378855397537
 31
0.0
 11
17.84312913803944
 21
47.39133098798629
 31
0.0
 11
17.8789688664872
 21
47.11930511197642
 31
0.0
 11
17.91820453158352
 21
46.84775036669668
 31
0.0
 11
17.96079124210775
 21
46.57670063188694
 31
0.0
 11
18.00776948356346
 21
46.30001353452371
 31
0.0
 11
18.05814734838694
 21
46.02392573257517
 31
0.0
 11
18.11186734160181
 21
45.74846243045251
 31
0.0
 11
18.16887040842711
 21
45.47365725318357
 31
0.0
 11
18.27457375929891
 21
45.00194301096547
 31
0.0
 11
18.38949369561993
 21
44.53237904435507
 31
0.0
 11
18.51329399898047
 21
44.06502905451025
 31
0.0
 11
18.64562179473033
 21
43.60002455962552
 31
0.0
 11
18.79297353564299
 21
43.11563169066627
 31
0.0
 11
18.9489062996923
 21
42.63392775638668
 31
0.0
 11
19.1130033200526
 21
42.1549983467632
 31
0.0
 11
19.28488475492524
 21
41.67881911569939
 31
0.0
 11
19.33097303029731
 21
41.55500505283096
 31
0.0
 11
19.3775594203605
 21
41.431377549614
 31
0.0
  0
SPLINE
  5
447
330
1F
100
AcDbEntity
  8
0
  6
Continuous
 62
     3
100
AcDbSpline
210
0.0
220
0.0
230
1.0
 70
     8
 71
     3
 72
    11
 73
     7
 74
     5
 42
0.0000000001
 43
0.0000000001
 44
0.00000001
 40
0.0
 40
0.0
 40
0.0
 40
0.0
 40
0.0240809549028757
 40
0.0481619098057354
 40
0.072251480812567
 40
0.0963410518193893
 40
0.0963410518193893
 40
0.0963410518193893
 40
0.0963410518193893
 10
20.1111403396023
 20
40.5000000000003
 30
0.0
 10
20.11490282628705
 20
40.50709069425844
 30
0.0
 10
20.12242779965656
 20
40.52127208277471
 30
0.0
 10
20.13338612041902
 20
40.54271928280729
 30
0.0
 10
20.1441237483634
 20
40.56428102954263
 30
0.0
 10
20.1510594180006
 20
40.57876612407174
 30
0.0
 10
20.1545272528192
 20
40.5860086713363
 30
0.0
 11
20.1111403396023
 21
40.5000000000003
 31
0.0
 11
20.1223727253084
 21
40.52130084271564
 31
0.0
 11
20.133347829126
 21
40.54273538225411
 31
0.0
 11
20.14406784772755
 21
40.56430825022468
 31
0.0
 11
20.1545272528192
 21
40.5860086713363
 31
0.0
  0
SPLINE
  5
448
330
1F
100
AcDbEntity
  8
0
  6
Continuous
 62
     3
100
AcDbSpline
210
0.0
220
0.0
230
1.0
 70
     8
 71
     3
 72
    11
 73
     7
 74
     5
 42
0.0000000001
 43
0.0000000001
 44
0.00000001
 40
0.0
 40
0.0
 40
0.0
 40
0.0
 40
0.0240906524669423
 40
0.0481813049338465
 40
0.0722610521940324
 40
0.0963407994542321
 40
0.0963407994542321
 40
0.0963407994542321
 40
0.0963407994542321
 10
-20.1545272845481
 20
78.4139915567741
 30
0.0
 10
-20.15105929198514
 20
78.42123442820194
 30
0.0
 10
-20.14412330685922
 20
78.4357201710576
 30
0.0
 10
-20.13338551582843
 20
78.45728219242277
 30
0.0
 10
-20.12242737701219
 20
78.47872898600312
 30
0.0
 10
-20.11490277854307
 20
78.4929096620009
 30
0.0
 10
-20.1111404793085
 20
78.4999999999998
 30
0.0
 11
-20.1545272845481
 21
78.4139915567741
 31
0.0
 11
-20.14406740122168
 21
78.43569294790649
 31
0.0
 11
-20.13334688108821
 21
78.45726677427895
 31
0.0
 11
-20.12237230819987
 21
78.47870022892427
 31
0.0
 11
-20.1111404793085
 21
78.4999999999998
 31
0.0
  0
SPLINE
  5
449
330
1F
100
AcDbEntity
  8
0
  6
Continuous
 62
     3
100
AcDbSpline
210
0.0
220
0.0
230
1.0
 70
     8
 71
     3
 72
    83
 73
    79
 74
    77
 42
0.0000000001
 43
0.0000000001
 44
0.00000001
 40
0.0
 40
0.0
 40
0.0
 40
0.0
 40
0.1319955129488258
 40
0.2639910258977935
 40
0.7701152619276723
 40
1.276250676827011
 40
1.78243866077358
 40
2.288621978116395
 40
2.77221662320831
 40
3.255814133768529
 40
3.739361002291099
 40
4.222897929694677
 40
4.498888841960444
 40
4.774877375843863
 40
5.050864831034906
 40
5.326852697239119
 40
5.605869167983268
 40
5.884886532864796
 40
6.163892477466911
 40
6.442894748855511
 40
6.518668229560576
 40
6.594441459754923
 40
6.670213719760616
 40
6.745986038151228
 40
6.81480868877393
 40
6.883631313620017
 40
6.952454207406609
 40
7.02127711619112
 40
7.098449317869504
 40
7.175621532379966
 40
7.252793663627865
 40
7.329965781205105
 40
7.398865988748542
 40
7.467766184801979
 40
7.53666641201944
 40
7.605566651512113
 40
7.683734890884724
 40
7.761903146775087
 40
7.840071372189084
 40
7.918239581211433
 40
7.98714433865187
 40
8.056049082892702
 40
8.124953900466611
 40
8.193858732611416
 40
8.272568260858497
 40
8.351277801407534
 40
8.429987031656413
 40
8.508696265632985
 40
8.57756602057153
 40
8.646435694420402
 40
8.715306232730839
 40
8.784177032022138
 40
9.073908112256667
 40
9.363643830922218
 40
9.653396700937586
 40
9.943148325714825
 40
10.23874573915161
 40
10.53434382854644
 40
10.82993619881925
 40
11.12552797224911
 40
11.39990500752771
 40
11.67428168903358
 40
11.94865628169747
 40
12.2230311833443
 40
12.50367812349783
 40
12.78432452673321
 40
13.06497710286129
 40
13.34563211365089
 40
13.8290444890582
 40
14.31246657223492
 40
14.79593583508423
 40
15.27940230319855
 40
15.78571148447874
 40
16.29202532707493
 40
16.79828732593865
 40
17.30453814100019
 40
17.43665192260811
 40
17.56876570421613
 40
17.56876570421613
 40
17.56876570421613
 40
17.56876570421613
 10
-19.3775593818221
 20
77.5686224503856
 30
0.0
 10
-19.3620098293282
 20
77.5274631719508
 30
0.0
 10
-19.3309107243404
 20
77.44514461508113
 30
0.0
 10
-19.24140072623437
 20
77.20454999818868
 30
0.0
 10
-19.11181530890393
 20
76.84580073663506
 30
0.0
 10
-18.94769518898932
 20
76.36697401556053
 30
0.0
 10
-18.79172839777818
 20
75.88540669255065
 30
0.0
 10
-18.64652745626007
 20
75.4083308989769
 30
0.0
 10
-18.51203480814916
 20
74.93595245599673
 30
0.0
 10
-18.38813982212991
 20
74.46848419270306
 30
0.0
 10
-18.27312126872648
 20
73.99877194003864
 30
0.0
 10
-18.18246100747903
 20
73.59442298906328
 30
0.0
 10
-18.1123052732464
 20
73.2564486119836
 30
0.0
 10
-18.05938426379419
 20
72.98557421634763
 30
0.0
 10
-18.00969297228337
 20
72.71408987032528
 30
0.0
 10
-17.9631173663105
 20
72.44102944291633
 30
0.0
 10
-17.91975663637929
 20
72.16641721215876
 30
0.0
 10
-17.87970137007301
 20
71.890286535883
 30
0.0
 10
-17.84315606087472
 20
71.61367439900386
 30
0.0
 10
-17.81817787379695
 20
71.40388893576251
 30
0.0
 10
-17.8023887546907
 20
71.26124362419438
 30
0.0
 10
-17.79431905088877
 20
71.18590138484527
 30
0.0
 10
-17.78651655832957
 20
71.11053141980526
 30
0.0
 10
-17.77921221697798
 20
71.03743958646042
 30
0.0
 10
-17.77237863742023
 20
70.96662924135659
 30
0.0
 10
-17.76598955088204
 20
70.89810360043595
 30
0.0
 10
-17.75982300615762
 20
70.8295574878986
 30
0.0
 10
-17.7536392392608
 20
70.75821887128427
 30
0.0
 10
-17.74747159578262
 20
70.68408571532929
 30
0.0
 10
-17.74135502058684
 20
70.60715613815492
 30
0.0
 10
-17.73552079647555
 20
70.53020466042685
 30
0.0
 10
-17.73016780419597
 20
70.45598245224355
 30
0.0
 10
-17.72526222250846
 20
70.38449293053947
 30
0.0
 10
-17.7207717249542
 20
70.31573908225236
 30
0.0
 10
-17.71650795496139
 20
70.24697078994699
 30
0.0
 10
-17.71229032268911
 20
70.17510474791936
 30
0.0
 10
-17.70815631147057
 20
70.10013955622007
 30
0.0
 10
-17.70414542479427
 20
70.02207410151236
 30
0.0
 10
-17.70042813134964
 20
69.94399412560375
 30
0.0
 10
-17.69714002608082
 20
69.86898558179146
 30
0.0
 10
-17.69424216080507
 20
69.79705122857578
 30
0.0
 10
-17.69169752051505
 20
69.72819333031093
 30
0.0
 10
-17.68938204886239
 20
69.65932731974415
 30
0.0
 10
-17.68719703426766
 20
69.58718721302851
 30
0.0
 10
-17.68518238080522
 20
69.51177263151784
 30
0.0
 10
-17.68338020247382
 20
69.43308364349028
 30
0.0
 10
-17.68187789078831
 20
69.35438845720189
 30
0.0
 10
-17.68072566955152
 20
69.27896766530056
 30
0.0
 10
-17.67988145454351
 20
69.20682291829289
 30
0.0
 10
-17.67930554985282
 20
69.13795521363554
 30
0.0
 10
-17.67895975197575
 20
69.06908559656297
 30
0.0
 10
-17.67872073575782
 20
68.9265948801265
 30
0.0
 10
-17.6802407352677
 20
68.71047958045281
 30
0.0
 10
-17.68634451071662
 20
68.42079486312247
 30
0.0
 10
-17.69650270481138
 20
68.13121669923261
 30
0.0
 10
-17.71080001453051
 20
67.83985722788037
 30
0.0
 10
-17.72932051112765
 20
67.54678292488765
 30
0.0
 10
-17.75212305976173
 20
67.2520580366186
 30
0.0
 10
-17.77904752872874
 20
66.95768315141018
 30
0.0
 10
-17.80931468586359
 20
66.67074535831611
 30
0.0
 10
-17.84255550182182
 20
66.39125919336347
 30
0.0
 10
-17.87840274400585
 20
66.11922758004565
 30
0.0
 10
-17.91764605347096
 20
65.84766600143972
 30
0.0
 10
-17.96056479849321
 20
65.57454520416321
 30
0.0
 10
-18.00720284863887
 20
65.29991384489352
 30
0.0
 10
-18.05759089844197
 20
65.02381861015388
 30
0.0
 10
-18.11132044290914
 20
64.74835133590258
 30
0.0
 10
-18.18206235734191
 20
64.40736503409163
 30
0.0
 10
-18.27303904113785
 20
64.0015788612253
 30
0.0
 10
-18.38801959793425
 20
63.53198688657316
 30
0.0
 10
-18.51187246441865
 20
63.06463893965388
 30
0.0
 10
-18.64634179062439
 20
62.59229912203382
 30
0.0
 10
-18.79154353148327
 20
62.11518050379218
 30
0.0
 10
-18.94754021253421
 20
61.63349029076993
 30
0.0
 10
-19.11169443905794
 20
61.15454168446914
 30
0.0
 10
-19.24131832502746
 20
60.79567466487677
 30
0.0
 10
-19.33086888257343
 20
60.55496599104475
 30
0.0
 10
-19.36199590776668
 20
60.47257369675759
 30
0.0
 10
-19.3775594203633
 20
60.431377549614
 30
0.0
 11
-19.3775593818221
 21
77.5686224503856
 31
0.0
 11
-19.33101462409773
 21
77.44510564599445
 31
0.0
 11
-19.28496684705602
 21
77.32140270476758
 31
0.0
 11
-19.11312351443184
 21
76.84534429308951
 31
0.0
 11
-18.94906066268228
 21
76.36653698436174
 31
0.0
 11
-18.79315764646349
 21
75.88495570915913
 31
0.0
 11
-18.64583113218303
 21
75.40068672507472
 31
0.0
 11
-18.51345700317887
 21
74.93556214957697
 31
0.0
 11
-18.38961427193566
 21
74.4680907278427
 31
0.0
 11
-18.2746566318118
 21
73.99840752073908
 31
0.0
 11
-18.16891962947389
 21
73.5265731785177
 31
0.0
 11
-18.11283400949675
 21
73.25634108034083
 31
0.0
 11
-18.05992245090926
 21
72.9854720385458
 31
0.0
 11
-18.01024056155653
 21
72.7139931530074
 31
0.0
 11
-17.96384407681377
 21
72.44193310725376
 31
0.0
 11
-17.92033375079946
 21
72.16633005488197
 31
0.0
 11
-17.88028573367317
 21
71.8902017400903
 31
0.0
 11
-17.84374873356957
 21
71.61359847773292
 31
0.0
 11
-17.81076938687749
 21
71.33655221781996
 31
0.0
 11
-17.80243317114217
 21
71.2612386872602
 31
0.0
 11
-17.79436354543151
 21
71.18589637806427
 31
0.0
 11
-17.78656118773879
 21
71.11052689749816
 31
0.0
 11
-17.77902659041151
 21
71.0351301198654
 31
0.0
 11
-17.77241563225125
 21
70.96662572240847
 31
0.0
 11
-17.76602665066627
 21
70.89810029205584
 31
0.0
 11
-17.75986019487415
 21
70.82955420878244
 31
0.0
 11
-17.75391686723105
 21
70.76098840367459
 31
0.0
 11
-17.74751856523684
 21
70.68408189911561
 31
0.0
 11
-17.74140207659285
 21
70.60715245573327
 31
0.0
 11
-17.73556794350249
 21
70.5302011676841
 31
0.0
 11
-17.73001669597016
 21
70.45322896892253
 31
0.0
 11
-17.72529994276563
 21
70.38449040013661
 31
0.0
 11
-17.72080951365163
 21
70.31573668705452
 31
0.0
 11
-17.71654581062385
 21
70.24696851020572
 31
0.0
 11
-17.7125092391593
 21
70.17818661511
 31
0.0
 11
-17.70820518340504
 21
70.10013695943697
 31
0.0
 11
-17.70419435641745
 21
70.02207166948159
 31
0.0
 11
-17.70047712412745
 21
69.94399187921243
 31
0.0
 11
-17.69705385100553
 21
69.86589866502007
 31
0.0
 11
-17.69428031630671
 21
69.7970497499727
 31
0.0
 11
-17.69173571629382
 21
69.72819200683753
 31
0.0
 11
-17.68942028279041
 21
69.65932610342674
 31
0.0
 11
-17.68733425132973
 21
69.59045285487805
 31
0.0
 11
-17.68523233936041
 21
69.51177139706904
 31
0.0
 11
-17.68343017773462
 21
69.43308249069136
 31
0.0
 11
-17.68192788873253
 21
69.35438759851833
 31
0.0
 11
-17.68072558718776
 21
69.27568754779297
 31
0.0
 11
-17.67991977685945
 21
69.20682250720625
 31
0.0
 11
-17.67934390327313
 21
69.13795524106578
 31
0.0
 11
-17.67899813140846
 21
69.06908557075303
 31
0.0
 11
-17.67888263273748
 21
69.0002148683094
 31
0.0
 11
-17.68091835294175
 21
68.71049093989285
 31
0.0
 11
-17.68702005697802
 21
68.42081947792516
 31
0.0
 11
-17.69717662640061
 21
68.13124466931829
 31
0.0
 11
-17.71137654486192
 21
67.84184120289686
 31
0.0
 11
-17.73001370949736
 21
67.54683190317078
 31
0.0
 11
-17.75281023368425
 21
67.25211415864415
 31
0.0
 11
-17.77972833547673
 21
66.95774998765965
 31
0.0
 11
-17.81073110996098
 21
66.66378855397542
 31
0.0
 11
-17.84312913804224
 21
66.3913309879863
 31
0.0
 11
-17.87896886649
 21
66.11930511197637
 31
0.0
 11
-17.91820453158632
 21
65.84775036669667
 31
0.0
 11
-17.96079124211055
 21
65.57670063188692
 31
0.0
 11
-18.00776948356626
 21
65.30001353452373
 31
0.0
 11
-18.05814734838973
 21
65.02392573257518
 31
0.0
 11
-18.11186734160461
 21
64.74846243045252
 31
0.0
 11
-18.16887040842991
 21
64.47365725318356
 31
0.0
 11
-18.27457375930172
 21
64.00194301096545
 31
0.0
 11
-18.38949369562276
 21
63.53237904435505
 31
0.0
 11
-18.51329399898331
 21
63.0650290545103
 31
0.0
 11
-18.64562179473316
 21
62.60002455962566
 31
0.0
 11
-18.79297353564577
 21
62.11563169066635
 31
0.0
 11
-18.94890629969505
 21
61.63392775638671
 31
0.0
 11
-19.11300332005539
 21
61.15499834676318
 31
0.0
 11
-19.28488475492812
 21
60.67881911569933
 31
0.0
 11
-19.33097303030019
 21
60.55500505283095
 31
0.0
 11
-19.3775594203633
 21
60.431377549614
 31
0.0
  0
LWPOLYLINE
  5
44A
330
1F
100
AcDbEntity
  8
3
  6
Continuous
 62
     3
100
AcDbPolyline
 90
        2
 70
     0
 43
0.0
 10
4.40000000000009
 20
133.0
 10
4.40000000000009
 20
151.000000606134
  0
LWPOLYLINE
  5
44B
330
1F
100
AcDbEntity
  8
3
  6
Continuous
 62
     3
100
AcDbPolyline
 90
        2
 70
     0
 43
0.0
 10
-15.5
 20
-56.4999999999994
 10
15.4999999999994
 20
-56.4999999999994
  0
LWPOLYLINE
  5
44C
330
1F
100
AcDbEntity
  8
3
  6
Continuous
 62
     3
100
AcDbPolyline
 90
        2
 70
     0
 43
0.0
 10
-15.5
 20
-38.4999999999994
 10
15.4999999999994
 20
-38.4999999999994
  0
LWPOLYLINE
  5
44D
330
1F
100
AcDbEntity
  8
3
  6
Continuous
 62
     3
100
AcDbPolyline
 90
        2
 70
     0
 43
0.0
 10
-43.5000004642839
 20
53.4999999999998
 10
-43.5000004642839
 20
84.4999999999998
  0
LWPOLYLINE
  5
44E
330
1F
100
AcDbEntity
  8
3
  6
Continuous
 62
     3
100
AcDbPolyline
 90
        2
 70
     0
 43
0.0
 10
-25.5000004642839
 20
53.4999999999998
 10
-25.5000004642839
 20
84.4999999999998
  0
LWPOLYLINE
  5
44F
330
1F
100
AcDbEntity
  8
3
  6
Continuous
 62
     3
100
AcDbPolyline
 90
        2
 70
     0
 43
0.0
 10
25.5000004642839
 20
65.4999999999998
 10
25.5000004642839
 20
34.4999999999998
  0
LWPOLYLINE
  5
450
330
1F
100
AcDbEntity
  8
3
  6
Continuous
 62
     3
100
AcDbPolyline
 90
        2
 70
     0
 43
0.0
 10
43.5000004642839
 20
65.4999999999998
 10
43.5000004642839
 20
34.4999999999998
  0
LWPOLYLINE
  5
451
330
1F
100
AcDbEntity
  8
3
  6
Continuous
 62
     3
100
AcDbPolyline
 90
        2
 70
     0
 43
0.0
 10
-206.92534167916
 20
-56.4999999999994
 10
-175.925341679161
 20
-56.4999999999994
  0
LWPOLYLINE
  5
452
330
1F
100
AcDbEntity
  8
3
  6
Continuous
 62
     3
100
AcDbPolyline
 90
        2
 70
     0
 43
0.0
 10
-206.92534167916
 20
-38.4999999999994
 10
-175.925341679161
 20
-38.4999999999994
  0
LWPOLYLINE
  5
453
330
1F
100
AcDbEntity
  8
1
  6
Continuous
 62
     3
100
AcDbPolyline
 90
        8
 70
     1
 43
0.0
 10
-191.42534167916
 20
86.8978583448778
 10
-191.42534167916
 20
86.8978583448778
 10
-175.92534167916
 20
77.9489291724388
 10
-175.92534167916
 20
60.0510708275608
 10
-191.42534167916
 20
51.1021416551218
 10
-206.92534167916
 20
60.0510708275608
 10
-206.92534167916
 20
77.9489291724388
 10
-191.42534167916
 20
86.8978583448778
  0
LWPOLYLINE
  5
454
330
1F
100
AcDbEntity
  8
1
  6
Continuous
 62
     3
100
AcDbPolyline
 90
        8
 70
     1
 43
0.0
 10
-191.42534167916
 20
21.939310229206
 10
-191.42534167916
 20
21.939310229206
 10
-172.42534167916
 20
10.969655114603
 10
-172.42534167916
 20
-10.969655114603
 10
-191.42534167916
 20
-21.939310229206
 10
-210.42534167916
 20
-10.969655114603
 10
-210.42534167916
 20
10.969655114603
 10
-191.42534167916
 20
21.939310229206
  0
LWPOLYLINE
  5
455
330
1F
100
AcDbEntity
  8
3
  6
Continuous
 62
     3
100
AcDbPolyline
 90
        2
 70
     0
 43
0.0
 10
-187.02534167916
 20
133.0
 10
-187.02534167916
 20
151.000000606134
  0
LEADER
  5
456
330
1F
100
AcDbEntity
  8
1
  6
Continuous
 62
     4
100
AcDbLeader
  3
Standard
 71
     0
 76
     3
 10
70.8613461032639
 20
247.043077530907
 30
0.0
 10
92.278429878392
 20
222.12477511082
 30
0.0
 10
149.041641758591
 20
222.12477511082
 30
0.0
  0
LEADER
  5
457
330
1F
100
AcDbEntity
  8
1
  6
Continuous
 62
     4
100
AcDbLeader
  3
Standard
 71
     0
 76
     3
 10
75.0539365707634
 20
60.2795644966727
 30
0.0
 10
91.0839353500603
 20
82.6795650688773
 30
0.0
 10
120.187219104042
 20
82.6795650688773
 30
0.0
  0
LEADER
  5
458
330
1F
100
AcDbEntity
  8
1
  6
Continuous
 62
     4
100
AcDbLeader
  3
Standard
 71
     0
 76
     3
 10
81.1753104894011
 20
-13.1
 30
0.0
 10
98.0340335712876
 20
-36.047313267518
 30
0.0
 10
128.852798014163
 20
-36.047313267518
 30
0.0
  0
LEADER
  5
459
330
1F
100
AcDbEntity
  8
1
  6
Continuous
 62
     4
100
AcDbLeader
  3
Standard
 71
     0
 76
     3
 10
-81.9360057963882
 20
-13.1
 30
0.0
 10
-97.8076066615021
 20
-32.4354140491724
 30
0.0
 10
-127.297695030284
 20
-32.4354140491724
 30
0.0
  0
LEADER
  5
45A
330
1F
100
AcDbEntity
  8
1
  6
Continuous
 62
     4
100
AcDbLeader
  3
Standard
 71
     0
 76
     3
 10
-75.0539365707634
 20
79.2795644966727
 30
0.0
 10
-91.0839353500603
 20
101.679565068877
 30
0.0
 10
-119.043894146506
 20
101.679565068877
 30
0.0
  0
LEADER
  5
45B
330
1F
100
AcDbEntity
  8
1
  6
Continuous
 62
     4
100
AcDbLeader
  3
Standard
 71
     0
 76
     3
 10
10.3027883106762
 20
-87.3107740583539
 30
0.0
 10
27.0522621021714
 20
-102.18156009369
 30
0.0
 10
55.0920738457065
 20
-102.18156009369
 30
0.0
  0
ENDSEC
  0
SECTION
  2
OBJECTS
  0
DICTIONARY
  5
C
330
0
100
AcDbDictionary
281
     1
  3
ACAD_GROUP
350
D
  3
ACAD_LAYOUT
350
1A
  3
ACAD_MATERIAL
350
3B
  3
ACAD_MLEADERSTYLE
350
45E
  3
ACAD_MLINESTYLE
350
17
  3
ACAD_PLOTSETTINGS
350
19
  3
ACAD_PLOTSTYLENAME
350
E
  3
ACAD_VISUALSTYLE
350
2A
  3
AcDbVariableDictionary
350
45C
  0
DICTIONARY
  5
D
102
{ACAD_REACTORS
330
C
102
}
330
C
100
AcDbDictionary
281
     1
  0
DICTIONARY
  5
1A
102
{ACAD_REACTORS
330
C
102
}
330
C
100
AcDbDictionary
281
     1
  3
Layout1
350
1E
  3
Layout2
350
26
  3
Model
350
22
  0
DICTIONARY
  5
3B
102
{ACAD_REACTORS
330
C
102
}
330
C
100
AcDbDictionary
281
     1
  3
ByBlock
350
3D
  3
ByLayer
350
3C
  3
Global
350
3E
  0
DICTIONARY
  5
45E
102
{ACAD_REACTORS
330
C
102
}
330
C
100
AcDbDictionary
281
     1
  0
DICTIONARY
  5
17
102
{ACAD_REACTORS
330
C
102
}
330
C
100
AcDbDictionary
281
     1
  3
Standard
350
18
  0
DICTIONARY
  5
19
102
{ACAD_REACTORS
330
C
102
}
330
C
100
AcDbDictionary
281
     1
  0
ACDBDICTIONARYWDFLT
  5
E
102
{ACAD_REACTORS
330
C
102
}
330
C
100
AcDbDictionary
281
     1
  3
Normal
350
F
100
AcDbDictionaryWithDefault
340
F
  0
DICTIONARY
  5
2A
102
{ACAD_REACTORS
330
C
102
}
330
C
100
AcDbDictionary
281
     1
  3
2dWireframe
350
2F
  3
3D Hidden
350
31
  3
3dWireframe
350
30
  3
Basic
350
32
  3
Brighten
350
36
  3
ColorChange
350
3A
  3
Conceptual
350
34
  3
Dim
350
35
  3
Facepattern
350
39
  3
Flat
350
2B
  3
FlatWithEdges
350
2C
  3
Gouraud
350
2D
  3
GouraudWithEdges
350
2E
  3
Linepattern
350
38
  3
Realistic
350
33
  3
Thicken
350
37
  0
DICTIONARY
  5
45C
102
{ACAD_REACTORS
330
C
102
}
330
C
100
AcDbDictionary
281
     1
  3
DIMASSOC
350
45F
  3
HIDETEXT
350
460
  0
LAYOUT
  5
1E
102
{ACAD_REACTORS
330
1A
102
}
330
1A
100
AcDbPlotSettings
  1

  2
none_device
  4

  6

 40
0.0
 41
0.0
 42
0.0
 43
0.0
 44
0.0
 45
0.0
 46
0.0
 47
0.0
 48
0.0
 49
0.0
140
0.0
141
0.0
142
1.0
143
1.0
 70
   688
 72
     0
 73
     0
 74
     5
  7

 75
    16
147
1.0
148
0.0
149
0.0
100
AcDbLayout
  1
Layout1
 70
     1
 71
     1
 10
0.0
 20
0.0
 11
12.0
 21
9.0
 12
0.0
 22
0.0
 32
0.0
 14
1.00000000000000E+20
 24
1.00000000000000E+20
 34
1.00000000000000E+20
 15
-1.00000000000000E+20
 25
-1.00000000000000E+20
 35
-1.00000000000000E+20
146
0.0
 13
0.0
 23
0.0
 33
0.0
 16
1.0
 26
0.0
 36
0.0
 17
0.0
 27
1.0
 37
0.0
 76
     0
330
1B
  0
LAYOUT
  5
26
102
{ACAD_REACTORS
330
1A
102
}
330
1A
100
AcDbPlotSettings
  1

  2
none_device
  4

  6

 40
0.0
 41
0.0
 42
0.0
 43
0.0
 44
0.0
 45
0.0
 46
0.0
 47
0.0
 48
0.0
 49
0.0
140
0.0
141
0.0
142
1.0
143
1.0
 70
   688
 72
     0
 73
     0
 74
     5
  7

 75
    16
147
1.0
148
0.0
149
0.0
100
AcDbLayout
  1
Layout2
 70
     1
 71
     2
 10
0.0
 20
0.0
 11
0.0
 21
0.0
 12
0.0
 22
0.0
 32
0.0
 14
0.0
 24
0.0
 34
0.0
 15
0.0
 25
0.0
 35
0.0
146
0.0
 13
0.0
 23
0.0
 33
0.0
 16
1.0
 26
0.0
 36
0.0
 17
0.0
 27
1.0
 37
0.0
 76
     0
330
23
  0
LAYOUT
  5
22
102
{ACAD_REACTORS
330
1A
102
}
330
1A
100
AcDbPlotSettings
  1

  2
none_device
  4

  6

 40
0.0
 41
0.0
 42
0.0
 43
0.0
 44
0.0
 45
0.0
 46
0.0
 47
0.0
 48
0.0
 49
0.0
140
0.0
141
0.0
142
1.0
143
1.0
 70
  1712
 72
     0
 73
     0
 74
     0
  7

 75
     0
147
1.0
148
0.0
149
0.0
100
AcDbLayout
  1
Model
 70
     1
 71
     0
 10
0.0
 20
0.0
 11
12.0
 21
9.0
 12
0.0
 22
0.0
 32
0.0
 14
-222.42534167916
 24
-110.770063078461
 34
0.0
 15
149.041641758591
 25
375.076292658229
 35
0.0
146
0.0
 13
0.0
 23
0.0
 33
0.0
 16
1.0
 26
0.0
 36
0.0
 17
0.0
 27
1.0
 37
0.0
 76
     0
330
1F
331
29
  0
MATERIAL
  5
3D
102
{ACAD_REACTORS
330
3B
102
}
102
{ACAD_XDICTIONARY
360
483
102
}
330
3B
100
AcDbMaterial
  1
ByBlock
  0
MATERIAL
  5
3C
102
{ACAD_REACTORS
330
3B
102
}
102
{ACAD_XDICTIONARY
360
481
102
}
330
3B
100
AcDbMaterial
  1
ByLayer
  0
MATERIAL
  5
3E
102
{ACAD_REACTORS
330
3B
102
}
102
{ACAD_XDICTIONARY
360
485
102
}
330
3B
100
AcDbMaterial
  1
Global
  0
MLINESTYLE
  5
18
102
{ACAD_REACTORS
330
17
102
}
330
17
100
AcDbMlineStyle
  2
Standard
 70
     0
  3

 62
   256
 51
90.0
 52
90.0
 71
     2
 49
0.5
 62
   256
  6
BYLAYER
 49
-0.5
 62
   256
  6
BYLAYER
  0
ACDBPLACEHOLDER
  5
F
102
{ACAD_REACTORS
330
E
102
}
330
E
  0
VISUALSTYLE
  5
2F
102
{ACAD_REACTORS
330
2A
102
}
102
{ACAD_XDICTIONARY
360
469
102
}
330
2A
100
AcDbVisualStyle
  2
2dWireframe
 70
     4
 71
     0
 72
     2
 73
     0
 90
        0
 40
-0.6
 41
-30.0
 62
     5
 63
     7
 74
     1
 91
        4
 64
     7
 65
   257
 75
     1
175
     1
 42
1.0
 92
        0
 66
   257
 43
1.0
 76
     1
 77
     6
 78
     2
 67
     7
 79
     5
170
     0
171
     0
290
     0
174
     0
 93
        1
 44
0.0
173
     0
291
     0
 45
0.0
1001
ACAD
1000
AcDbSavedByObjectVersion
1070
     0
  0
VISUALSTYLE
  5
31
102
{ACAD_REACTORS
330
2A
102
}
102
{ACAD_XDICTIONARY
360
46D
102
}
330
2A
100
AcDbVisualStyle
  2
3D Hidden
 70
     6
 71
     1
 72
     2
 73
     2
 90
        0
 40
-0.6
 41
-30.0
 62
     5
 63
     7
 74
     2
 91
        2
 64
     7
 65
   257
 75
     2
175
     1
 42
40.0
 92
        0
 66
   257
 43
1.0
 76
     1
 77
     6
 78
     2
 67
     7
 79
     3
170
     0
171
     0
290
     0
174
     0
 93
        1
 44
0.0
173
     0
291
     0
 45
0.0
1001
ACAD
1000
AcDbSavedByObjectVersion
1070
     0
  0
VISUALSTYLE
  5
30
102
{ACAD_REACTORS
330
2A
102
}
102
{ACAD_XDICTIONARY
360
46B
102
}
330
2A
100
AcDbVisualStyle
  2
3dWireframe
 70
     5
 71
     0
 72
     2
 73
     0
 90
        0
 40
-0.6
 41
-30.0
 62
     5
 63
     7
 74
     1
 91
        4
 64
     7
 65
   257
 75
     1
175
     1
 42
1.0
 92
        0
 66
   257
 43
1.0
 76
     1
 77
     6
 78
     2
 67
     7
 79
     5
170
     0
171
     0
290
     0
174
     0
 93
        1
 44
0.0
173
     0
291
     0
 45
0.0
1001
ACAD
1000
AcDbSavedByObjectVersion
1070
     0
  0
VISUALSTYLE
  5
32
102
{ACAD_REACTORS
330
2A
102
}
102
{ACAD_XDICTIONARY
360
46F
102
}
330
2A
100
AcDbVisualStyle
  2
Basic
 70
     7
 71
     1
 72
     0
 73
     1
 90
        0
 40
-0.6
 41
-30.0
 62
     5
 63
     7
 74
     0
 91
        4
 64
     7
 65
   257
 75
     1
175
     1
 42
1.0
 92
        8
 66
     7
 43
1.0
 76
     1
 77
     6
 78
     2
 67
     7
 79
     5
170
     0
171
     0
290
     0
174
     0
 93
        1
 44
0.0
173
     0
291
     1
 45
0.0
1001
ACAD
1000
AcDbSavedByObjectVersion
1070
     0
  0
VISUALSTYLE
  5
36
102
{ACAD_REACTORS
330
2A
102
}
102
{ACAD_XDICTIONARY
360
477
102
}
330
2A
100
AcDbVisualStyle
  2
Brighten
 70
    12
 71
     2
 72
     2
 73
     0
 90
        0
 40
-0.6
 41
-30.0
 62
     5
 63
     7
 74
     1
 91
        4
 64
     7
 65
   257
 75
     1
175
     1
 42
1.0
 92
        8
 66
     7
 43
1.0
 76
     1
 77
     6
 78
     2
 67
     7
 79
     5
170
     0
171
     0
290
     0
174
     0
 93
        1
 44
50.0
173
     0
291
     1
 45
0.0
1001
ACAD
1000
AcDbSavedByObjectVersion
1070
     0
  0
VISUALSTYLE
  5
3A
102
{ACAD_REACTORS
330
2A
102
}
102
{ACAD_XDICTIONARY
360
47F
102
}
330
2A
100
AcDbVisualStyle
  2
ColorChange
 70
    16
 71
     2
 72
     2
 73
     3
 90
        0
 40
-0.6
 41
-30.0
 62
     5
 63
     8
 74
     1
 91
        4
 64
     7
 65
   257
 75
     1
175
     1
 42
1.0
 92
        8
 66
     8
 43
1.0
 76
     1
 77
     6
 78
     2
 67
     7
 79
     5
170
     0
171
     0
290
     0
174
     0
 93
        1
 44
0.0
173
     0
291
     1
 45
0.0
1001
ACAD
1000
AcDbSavedByObjectVersion
1070
     0
  0
VISUALSTYLE
  5
34
102
{ACAD_REACTORS
330
2A
102
}
102
{ACAD_XDICTIONARY
360
473
102
}
330
2A
100
AcDbVisualStyle
  2
Conceptual
 70
     9
 71
     3
 72
     2
 73
     0
 90
        0
 40
-0.6
 41
-30.0
 62
     5
 63
     7
 74
     2
 91
        2
 64
     7
 65
   257
 75
     1
175
     1
 42
40.0
 92
        8
 66
     7
 43
1.0
 76
     1
 77
     6
 78
     2
 67
     7
 79
     3
170
     0
171
     0
290
     0
174
     0
 93
        1
 44
0.0
173
     0
291
     0
 45
0.0
1001
ACAD
1000
AcDbSavedByObjectVersion
1070
     0
  0
VISUALSTYLE
  5
35
102
{ACAD_REACTORS
330
2A
102
}
102
{ACAD_XDICTIONARY
360
475
102
}
330
2A
100
AcDbVisualStyle
  2
Dim
 70
    11
 71
     2
 72
     2
 73
     0
 90
        0
 40
-0.6
 41
-30.0
 62
     5
 63
     7
 74
     1
 91
        4
 64
     7
 65
   257
 75
     1
175
     1
 42
1.0
 92
        8
 66
     7
 43
1.0
 76
     1
 77
     6
 78
     2
 67
     7
 79
     5
170
     0
171
     0
290
     0
174
     0
 93
        1
 44
-50.0
173
     0
291
     1
 45
0.0
1001
ACAD
1000
AcDbSavedByObjectVersion
1070
     0
  0
VISUALSTYLE
  5
39
102
{ACAD_REACTORS
330
2A
102
}
102
{ACAD_XDICTIONARY
360
47D
102
}
330
2A
100
AcDbVisualStyle
  2
Facepattern
 70
    15
 71
     2
 72
     2
 73
     0
 90
        0
 40
-0.6
 41
-30.0
 62
     5
 63
     7
 74
     1
 91
        4
 64
     7
 65
   257
 75
     1
175
     1
 42
1.0
 92
        8
 66
     7
 43
1.0
 76
     1
 77
     6
 78
     2
 67
     7
 79
     5
170
     0
171
     0
290
     0
174
     0
 93
        1
 44
0.0
173
     0
291
     1
 45
0.0
1001
ACAD
1000
AcDbSavedByObjectVersion
1070
     0
  0
VISUALSTYLE
  5
2B
102
{ACAD_REACTORS
330
2A
102
}
102
{ACAD_XDICTIONARY
360
461
102
}
330
2A
100
AcDbVisualStyle
  2
Flat
 70
     0
 71
     2
 72
     1
 73
     1
 90
        2
 40
-0.6
 41
30.0
 62
     5
 63
     7
 74
     0
 91
        4
 64
     7
 65
   257
 75
     1
175
     1
 42
1.0
 92
        8
 66
     7
 43
1.0
 76
     1
 77
     6
 78
     2
 67
     7
 79
     5
170
     0
171
     0
290
     0
174
     0
 93
       13
 44
0.0
173
     0
291
     1
 45
0.0
1001
ACAD
1000
AcDbSavedByObjectVersion
1070
     0
  0
VISUALSTYLE
  5
2C
102
{ACAD_REACTORS
330
2A
102
}
102
{ACAD_XDICTIONARY
360
463
102
}
330
2A
100
AcDbVisualStyle
  2
FlatWithEdges
 70
     1
 71
     2
 72
     1
 73
     1
 90
        2
 40
-0.6
 41
30.0
 62
     5
 63
     7
 74
     1
 91
        4
 64
     7
 65
   257
 75
     1
175
     1
 42
1.0
 92
        0
 66
   257
 43
1.0
 76
     1
 77
     6
 78
     2
 67
     7
 79
     5
170
     0
171
     0
290
     0
174
     0
 93
       13
 44
0.0
173
     0
291
     1
 45
0.0
1001
ACAD
1000
AcDbSavedByObjectVersion
1070
     0
  0
VISUALSTYLE
  5
2D
102
{ACAD_REACTORS
330
2A
102
}
102
{ACAD_XDICTIONARY
360
465
102
}
330
2A
100
AcDbVisualStyle
  2
Gouraud
 70
     2
 71
     2
 72
     2
 73
     1
 90
        2
 40
-0.6
 41
30.0
 62
     5
 63
     7
 74
     0
 91
        4
 64
     7
 65
   257
 75
     1
175
     1
 42
1.0
 92
        0
 66
     7
 43
1.0
 76
     1
 77
     6
 78
     2
 67
     7
 79
     5
170
     0
171
     0
290
     0
174
     0
 93
       13
 44
0.0
173
     0
291
     1
 45
0.0
1001
ACAD
1000
AcDbSavedByObjectVersion
1070
     0
  0
VISUALSTYLE
  5
2E
102
{ACAD_REACTORS
330
2A
102
}
102
{ACAD_XDICTIONARY
360
467
102
}
330
2A
100
AcDbVisualStyle
  2
GouraudWithEdges
 70
     3
 71
     2
 72
     2
 73
     1
 90
        2
 40
-0.6
 41
30.0
 62
     5
 63
     7
 74
     1
 91
        4
 64
     7
 65
   257
 75
     1
175
     1
 42
1.0
 92
        0
 66
   257
 43
1.0
 76
     1
 77
     6
 78
     2
 67
     7
 79
     5
170
     0
171
     0
290
     0
174
     0
 93
       13
 44
0.0
173
     0
291
     1
 45
0.0
1001
ACAD
1000
AcDbSavedByObjectVersion
1070
     0
  0
VISUALSTYLE
  5
38
102
{ACAD_REACTORS
330
2A
102
}
102
{ACAD_XDICTIONARY
360
47B
102
}
330
2A
100
AcDbVisualStyle
  2
Linepattern
 70
    14
 71
     2
 72
     2
 73
     0
 90
        0
 40
-0.6
 41
-30.0
 62
     5
 63
     7
 74
     1
 91
        4
 64
     7
 65
   257
 75
     7
175
     7
 42
1.0
 92
        8
 66
     7
 43
1.0
 76
     1
 77
     6
 78
     2
 67
     7
 79
     5
170
     0
171
     0
290
     0
174
     0
 93
        1
 44
0.0
173
     0
291
     1
 45
0.0
1001
ACAD
1000
AcDbSavedByObjectVersion
1070
     0
  0
VISUALSTYLE
  5
33
102
{ACAD_REACTORS
330
2A
102
}
102
{ACAD_XDICTIONARY
360
471
102
}
330
2A
100
AcDbVisualStyle
  2
Realistic
 70
     8
 71
     2
 72
     2
 73
     0
 90
        0
 40
-0.6
 41
-30.0
 62
     5
 63
     7
 74
     1
 91
        0
 64
     7
 65
   257
 75
     1
175
     1
 42
1.0
 92
        8
 66
     8
 43
1.0
 76
     1
 77
     6
 78
     2
 67
     7
 79
     5
170
     0
171
     0
290
     0
174
     0
 93
       13
 44
0.0
173
     0
291
     0
 45
0.0
1001
ACAD
1000
AcDbSavedByObjectVersion
1070
     0
  0
VISUALSTYLE
  5
37
102
{ACAD_REACTORS
330
2A
102
}
102
{ACAD_XDICTIONARY
360
479
102
}
330
2A
100
AcDbVisualStyle
  2
Thicken
 70
    13
 71
     2
 72
     2
 73
     0
 90
        0
 40
-0.6
 41
-30.0
 62
     5
 63
     7
 74
     1
 91
        4
 64
     7
 65
   257
 75
     1
175
     1
 42
1.0
 92
       12
 66
     7
 43
1.0
 76
     1
 77
     6
 78
     2
 67
     7
 79
     5
170
     0
171
     0
290
     0
174
     0
 93
        1
 44
0.0
173
     0
291
     1
 45
0.0
1001
ACAD
1000
AcDbSavedByObjectVersion
1070
     0
  0
DICTIONARYVAR
  5
45F
102
{ACAD_REACTORS
330
45C
102
}
330
45C
100
DictionaryVariables
280
     0
  1
2
  0
DICTIONARYVAR
  5
460
102
{ACAD_REACTORS
330
45C
102
}
330
45C
100
DictionaryVariables
280
     0
  1
1
  0
DICTIONARY
  5
483
330
3D
100
AcDbDictionary
280
     1
281
     1
  3
ACAD_XREC_ROUNDTRIP
360
484
  0
DICTIONARY
  5
481
330
3C
100
AcDbDictionary
280
     1
281
     1
  3
ACAD_XREC_ROUNDTRIP
360
482
  0
DICTIONARY
  5
485
330
3E
100
AcDbDictionary
280
     1
281
     1
  3
ACAD_XREC_ROUNDTRIP
360
486
  0
DICTIONARY
  5
469
330
2F
100
AcDbDictionary
280
     1
281
     1
  3
ACAD_XREC_ROUNDTRIP
360
46A
  0
DICTIONARY
  5
46D
330
31
100
AcDbDictionary
280
     1
281
     1
  3
ACAD_XREC_ROUNDTRIP
360
46E
  0
DICTIONARY
  5
46B
330
30
100
AcDbDictionary
280
     1
281
     1
  3
ACAD_XREC_ROUNDTRIP
360
46C
  0
DICTIONARY
  5
46F
330
32
100
AcDbDictionary
280
     1
281
     1
  3
ACAD_XREC_ROUNDTRIP
360
470
  0
DICTIONARY
  5
477
330
36
100
AcDbDictionary
280
     1
281
     1
  3
ACAD_XREC_ROUNDTRIP
360
478
  0
DICTIONARY
  5
47F
330
3A
100
AcDbDictionary
280
     1
281
     1
  3
ACAD_XREC_ROUNDTRIP
360
480
  0
DICTIONARY
  5
473
330
34
100
AcDbDictionary
280
     1
281
     1
  3
ACAD_XREC_ROUNDTRIP
360
474
  0
DICTIONARY
  5
475
330
35
100
AcDbDictionary
280
     1
281
     1
  3
ACAD_XREC_ROUNDTRIP
360
476
  0
DICTIONARY
  5
47D
330
39
100
AcDbDictionary
280
     1
281
     1
  3
ACAD_XREC_ROUNDTRIP
360
47E
  0
DICTIONARY
  5
461
330
2B
100
AcDbDictionary
280
     1
281
     1
  3
ACAD_XREC_ROUNDTRIP
360
462
  0
DICTIONARY
  5
463
330
2C
100
AcDbDictionary
280
     1
281
     1
  3
ACAD_XREC_ROUNDTRIP
360
464
  0
DICTIONARY
  5
465
330
2D
100
AcDbDictionary
280
     1
281
     1
  3
ACAD_XREC_ROUNDTRIP
360
466
  0
DICTIONARY
  5
467
330
2E
100
AcDbDictionary
280
     1
281
     1
  3
ACAD_XREC_ROUNDTRIP
360
468
  0
DICTIONARY
  5
47B
330
38
100
AcDbDictionary
280
     1
281
     1
  3
ACAD_XREC_ROUNDTRIP
360
47C
  0
DICTIONARY
  5
471
330
33
100
AcDbDictionary
280
     1
281
     1
  3
ACAD_XREC_ROUNDTRIP
360
472
  0
DICTIONARY
  5
479
330
37
100
AcDbDictionary
280
     1
281
     1
  3
ACAD_XREC_ROUNDTRIP
360
47A
  0
XRECORD
  5
484
102
{ACAD_REACTORS
330
483
102
}
330
483
100
AcDbXrecord
280
     1
102
MATERIAL
148
0.0
149
0.0
149
0.0
 93
        0
 94
      127
282
     0
 72
     1
 77
     1
171
     1
175
     1
179
     1
273
     0
  0
XRECORD
  5
482
102
{ACAD_REACTORS
330
481
102
}
330
481
100
AcDbXrecord
280
     1
102
MATERIAL
148
0.0
149
0.0
149
0.0
 93
        0
 94
      127
282
     0
 72
     1
 77
     1
171
     1
175
     1
179
     1
273
     0
  0
XRECORD
  5
486
102
{ACAD_REACTORS
330
485
102
}
330
485
100
AcDbXrecord
280
     1
102
MATERIAL
148
0.0
149
0.0
149
0.0
 93
        0
 94
      127
282
     0
 72
     1
 77
     1
171
     1
175
     1
179
     1
273
     0
  0
XRECORD
  5
46A
102
{ACAD_REACTORS
330
469
102
}
330
469
100
AcDbXrecord
280
     1
102
RTVSPropertyOp0
 70
     1
102
RTVSPropertyOp1
 70
     1
102
RTVSPropertyOp2
 70
     1
102
RTVSPropertyOp3
 70
     1
102
RTVSPropertyOp4
 70
     1
102
RTVSPropertyOp5
 70
     1
102
RTVSPropertyOp6
 70
     1
102
RTVSPropertyOp7
 70
     1
102
RTVSPropertyOp8
 70
     1
102
RTVSPropertyOp9
 70
     1
102
RTVSPropertyOp10
 70
     1
102
RTVSPropertyOp11
 70
     1
102
RTVSPropertyOp12
 70
     1
102
RTVSPropertyOp13
 70
     1
102
RTVSPropertyOp14
 70
     1
102
RTVSPropertyOp15
 70
     1
102
RTVSPropertyOp16
 70
     1
102
RTVSPropertyOp17
 70
     1
102
RTVSPropertyOp18
 70
     1
102
RTVSPropertyOp19
 70
     1
102
RTVSPropertyOp20
 70
     1
102
RTVSPropertyOp21
 70
     1
102
RTVSPropertyOp22
 70
     1
102
RTVSPropertyOp23
 70
     1
102
RTVSPropertyOp24
 70
     1
102
RTVSPropertyOp25
 70
     1
102
RTVSPropertyOp26
 70
     1
102
RTVSPropertyOp27
 70
     1
  0
XRECORD
  5
46E
102
{ACAD_REACTORS
330
46D
102
}
330
46D
100
AcDbXrecord
280
     1
102
RTVSPropertyOp0
 70
     1
102
RTVSPropertyOp1
 70
     1
102
RTVSPropertyOp2
 70
     1
102
RTVSPropertyOp3
 70
     1
102
RTVSPropertyOp4
 70
     1
102
RTVSPropertyOp5
 70
     1
102
RTVSPropertyOp6
 70
     1
102
RTVSPropertyOp7
 70
     1
102
RTVSPropertyOp8
 70
     1
102
RTVSPropertyOp9
 70
     1
102
RTVSPropertyOp10
 70
     1
102
RTVSPropertyOp11
 70
     1
102
RTVSPropertyOp12
 70
     1
102
RTVSPropertyOp13
 70
     1
102
RTVSPropertyOp14
 70
     1
102
RTVSPropertyOp15
 70
     1
102
RTVSPropertyOp16
 70
     1
102
RTVSPropertyOp17
 70
     1
102
RTVSPropertyOp18
 70
     1
102
RTVSPropertyOp19
 70
     1
102
RTVSPropertyOp20
 70
     1
102
RTVSPropertyOp21
 70
     1
102
RTVSPropertyOp22
 70
     1
102
RTVSPropertyOp23
 70
     1
102
RTVSPropertyOp24
 70
     1
102
RTVSPropertyOp25
 70
     1
102
RTVSPropertyOp26
 70
     1
102
RTVSPropertyOp27
 70
     1
  0
XRECORD
  5
46C
102
{ACAD_REACTORS
330
46B
102
}
330
46B
100
AcDbXrecord
280
     1
102
RTVSPropertyOp0
 70
     1
102
RTVSPropertyOp1
 70
     1
102
RTVSPropertyOp2
 70
     1
102
RTVSPropertyOp3
 70
     1
102
RTVSPropertyOp4
 70
     1
102
RTVSPropertyOp5
 70
     1
102
RTVSPropertyOp6
 70
     1
102
RTVSPropertyOp7
 70
     1
102
RTVSPropertyOp8
 70
     1
102
RTVSPropertyOp9
 70
     1
102
RTVSPropertyOp10
 70
     1
102
RTVSPropertyOp11
 70
     1
102
RTVSPropertyOp12
 70
     1
102
RTVSPropertyOp13
 70
     1
102
RTVSPropertyOp14
 70
     1
102
RTVSPropertyOp15
 70
     1
102
RTVSPropertyOp16
 70
     1
102
RTVSPropertyOp17
 70
     1
102
RTVSPropertyOp18
 70
     1
102
RTVSPropertyOp19
 70
     1
102
RTVSPropertyOp20
 70
     1
102
RTVSPropertyOp21
 70
     1
102
RTVSPropertyOp22
 70
     1
102
RTVSPropertyOp23
 70
     1
102
RTVSPropertyOp24
 70
     1
102
RTVSPropertyOp25
 70
     1
102
RTVSPropertyOp26
 70
     1
102
RTVSPropertyOp27
 70
     1
  0
XRECORD
  5
470
102
{ACAD_REACTORS
330
46F
102
}
330
46F
100
AcDbXrecord
280
     1
102
RTVSPropertyOp0
 70
     1
102
RTVSPropertyOp1
 70
     1
102
RTVSPropertyOp2
 70
     1
102
RTVSPropertyOp3
 70
     1
102
RTVSPropertyOp4
 70
     1
102
RTVSPropertyOp5
 70
     1
102
RTVSPropertyOp6
 70
     1
102
RTVSPropertyOp7
 70
     1
102
RTVSPropertyOp8
 70
     1
102
RTVSPropertyOp9
 70
     1
102
RTVSPropertyOp10
 70
     1
102
RTVSPropertyOp11
 70
     1
102
RTVSPropertyOp12
 70
     1
102
RTVSPropertyOp13
 70
     1
102
RTVSPropertyOp14
 70
     1
102
RTVSPropertyOp15
 70
     1
102
RTVSPropertyOp16
 70
     1
102
RTVSPropertyOp17
 70
     1
102
RTVSPropertyOp18
 70
     1
102
RTVSPropertyOp19
 70
     1
102
RTVSPropertyOp20
 70
     1
102
RTVSPropertyOp21
 70
     1
102
RTVSPropertyOp22
 70
     1
102
RTVSPropertyOp23
 70
     1
102
RTVSPropertyOp24
 70
     1
102
RTVSPropertyOp25
 70
     1
102
RTVSPropertyOp26
 70
     1
102
RTVSPropertyOp27
 70
     1
  0
XRECORD
  5
478
102
{ACAD_REACTORS
330
477
102
}
330
477
100
AcDbXrecord
280
     1
102
RTVSPropertyOp0
 70
     1
102
RTVSPropertyOp1
 70
     1
102
RTVSPropertyOp2
 70
     1
102
RTVSPropertyOp3
 70
     1
102
RTVSPropertyOp4
 70
     1
102
RTVSPropertyOp5
 70
     1
102
RTVSPropertyOp6
 70
     1
102
RTVSPropertyOp7
 70
     1
102
RTVSPropertyOp8
 70
     1
102
RTVSPropertyOp9
 70
     1
102
RTVSPropertyOp10
 70
     1
102
RTVSPropertyOp11
 70
     1
102
RTVSPropertyOp12
 70
     1
102
RTVSPropertyOp13
 70
     1
102
RTVSPropertyOp14
 70
     1
102
RTVSPropertyOp15
 70
     1
102
RTVSPropertyOp16
 70
     1
102
RTVSPropertyOp17
 70
     1
102
RTVSPropertyOp18
 70
     1
102
RTVSPropertyOp19
 70
     1
102
RTVSPropertyOp20
 70
     1
102
RTVSPropertyOp21
 70
     1
102
RTVSPropertyOp22
 70
     1
102
RTVSPropertyOp23
 70
     1
102
RTVSPropertyOp24
 70
     1
102
RTVSPropertyOp25
 70
     1
102
RTVSPropertyOp26
 70
     1
102
RTVSPropertyOp27
 70
     1
  0
XRECORD
  5
480
102
{ACAD_REACTORS
330
47F
102
}
330
47F
100
AcDbXrecord
280
     1
102
RTVSPropertyOp0
 70
     1
102
RTVSPropertyOp1
 70
     1
102
RTVSPropertyOp2
 70
     1
102
RTVSPropertyOp3
 70
     1
102
RTVSPropertyOp4
 70
     1
102
RTVSPropertyOp5
 70
     1
102
RTVSPropertyOp6
 70
     1
102
RTVSPropertyOp7
 70
     1
102
RTVSPropertyOp8
 70
     1
102
RTVSPropertyOp9
 70
     1
102
RTVSPropertyOp10
 70
     1
102
RTVSPropertyOp11
 70
     1
102
RTVSPropertyOp12
 70
     1
102
RTVSPropertyOp13
 70
     1
102
RTVSPropertyOp14
 70
     1
102
RTVSPropertyOp15
 70
     1
102
RTVSPropertyOp16
 70
     1
102
RTVSPropertyOp17
 70
     1
102
RTVSPropertyOp18
 70
     1
102
RTVSPropertyOp19
 70
     1
102
RTVSPropertyOp20
 70
     1
102
RTVSPropertyOp21
 70
     1
102
RTVSPropertyOp22
 70
     1
102
RTVSPropertyOp23
 70
     1
102
RTVSPropertyOp24
 70
     1
102
RTVSPropertyOp25
 70
     1
102
RTVSPropertyOp26
 70
     1
102
RTVSPropertyOp27
 70
     1
  0
XRECORD
  5
474
102
{ACAD_REACTORS
330
473
102
}
330
473
100
AcDbXrecord
280
     1
102
RTVSPropertyOp0
 70
     1
102
RTVSPropertyOp1
 70
     1
102
RTVSPropertyOp2
 70
     1
102
RTVSPropertyOp3
 70
     1
102
RTVSPropertyOp4
 70
     1
102
RTVSPropertyOp5
 70
     1
102
RTVSPropertyOp6
 70
     1
102
RTVSPropertyOp7
 70
     1
102
RTVSPropertyOp8
 70
     1
102
RTVSPropertyOp9
 70
     1
102
RTVSPropertyOp10
 70
     1
102
RTVSPropertyOp11
 70
     1
102
RTVSPropertyOp12
 70
     1
102
RTVSPropertyOp13
 70
     1
102
RTVSPropertyOp14
 70
     1
102
RTVSPropertyOp15
 70
     1
102
RTVSPropertyOp16
 70
     1
102
RTVSPropertyOp17
 70
     1
102
RTVSPropertyOp18
 70
     1
102
RTVSPropertyOp19
 70
     1
102
RTVSPropertyOp20
 70
     1
102
RTVSPropertyOp21
 70
     1
102
RTVSPropertyOp22
 70
     1
102
RTVSPropertyOp23
 70
     1
102
RTVSPropertyOp24
 70
     1
102
RTVSPropertyOp25
 70
     1
102
RTVSPropertyOp26
 70
     1
102
RTVSPropertyOp27
 70
     1
  0
XRECORD
  5
476
102
{ACAD_REACTORS
330
475
102
}
330
475
100
AcDbXrecord
280
     1
102
RTVSPropertyOp0
 70
     1
102
RTVSPropertyOp1
 70
     1
102
RTVSPropertyOp2
 70
     1
102
RTVSPropertyOp3
 70
     1
102
RTVSPropertyOp4
 70
     1
102
RTVSPropertyOp5
 70
     1
102
RTVSPropertyOp6
 70
     1
102
RTVSPropertyOp7
 70
     1
102
RTVSPropertyOp8
 70
     1
102
RTVSPropertyOp9
 70
     1
102
RTVSPropertyOp10
 70
     1
102
RTVSPropertyOp11
 70
     1
102
RTVSPropertyOp12
 70
     1
102
RTVSPropertyOp13
 70
     1
102
RTVSPropertyOp14
 70
     1
102
RTVSPropertyOp15
 70
     1
102
RTVSPropertyOp16
 70
     1
102
RTVSPropertyOp17
 70
     1
102
RTVSPropertyOp18
 70
     1
102
RTVSPropertyOp19
 70
     1
102
RTVSPropertyOp20
 70
     1
102
RTVSPropertyOp21
 70
     1
102
RTVSPropertyOp22
 70
     1
102
RTVSPropertyOp23
 70
     1
102
RTVSPropertyOp24
 70
     1
102
RTVSPropertyOp25
 70
     1
102
RTVSPropertyOp26
 70
     1
102
RTVSPropertyOp27
 70
     1
  0
XRECORD
  5
47E
102
{ACAD_REACTORS
330
47D
102
}
330
47D
100
AcDbXrecord
280
     1
102
RTVSPropertyOp0
 70
     1
102
RTVSPropertyOp1
 70
     1
102
RTVSPropertyOp2
 70
     1
102
RTVSPropertyOp3
 70
     1
102
RTVSPropertyOp4
 70
     1
102
RTVSPropertyOp5
 70
     1
102
RTVSPropertyOp6
 70
     1
102
RTVSPropertyOp7
 70
     1
102
RTVSPropertyOp8
 70
     1
102
RTVSPropertyOp9
 70
     1
102
RTVSPropertyOp10
 70
     1
102
RTVSPropertyOp11
 70
     1
102
RTVSPropertyOp12
 70
     1
102
RTVSPropertyOp13
 70
     1
102
RTVSPropertyOp14
 70
     1
102
RTVSPropertyOp15
 70
     1
102
RTVSPropertyOp16
 70
     1
102
RTVSPropertyOp17
 70
     1
102
RTVSPropertyOp18
 70
     1
102
RTVSPropertyOp19
 70
     1
102
RTVSPropertyOp20
 70
     1
102
RTVSPropertyOp21
 70
     1
102
RTVSPropertyOp22
 70
     1
102
RTVSPropertyOp23
 70
     1
102
RTVSPropertyOp24
 70
     1
102
RTVSPropertyOp25
 70
     1
102
RTVSPropertyOp26
 70
     1
102
RTVSPropertyOp27
 70
     1
  0
XRECORD
  5
462
102
{ACAD_REACTORS
330
461
102
}
330
461
100
AcDbXrecord
280
     1
102
RTVSPropertyOp0
 70
     1
102
RTVSPropertyOp1
 70
     1
102
RTVSPropertyOp2
 70
     1
102
RTVSPropertyOp3
 70
     1
102
RTVSPropertyOp4
 70
     1
102
RTVSPropertyOp5
 70
     1
102
RTVSPropertyOp6
 70
     1
102
RTVSPropertyOp7
 70
     1
102
RTVSPropertyOp8
 70
     1
102
RTVSPropertyOp9
 70
     1
102
RTVSPropertyOp10
 70
     1
102
RTVSPropertyOp11
 70
     1
102
RTVSPropertyOp12
 70
     1
102
RTVSPropertyOp13
 70
     1
102
RTVSPropertyOp14
 70
     1
102
RTVSPropertyOp15
 70
     1
102
RTVSPropertyOp16
 70
     1
102
RTVSPropertyOp17
 70
     1
102
RTVSPropertyOp18
 70
     1
102
RTVSPropertyOp19
 70
     1
102
RTVSPropertyOp20
 70
     1
102
RTVSPropertyOp21
 70
     1
102
RTVSPropertyOp22
 70
     1
102
RTVSPropertyOp23
 70
     1
102
RTVSPropertyOp24
 70
     1
102
RTVSPropertyOp25
 70
     1
102
RTVSPropertyOp26
 70
     1
102
RTVSPropertyOp27
 70
     1
  0
XRECORD
  5
464
102
{ACAD_REACTORS
330
463
102
}
330
463
100
AcDbXrecord
280
     1
102
RTVSPropertyOp0
 70
     1
102
RTVSPropertyOp1
 70
     1
102
RTVSPropertyOp2
 70
     1
102
RTVSPropertyOp3
 70
     1
102
RTVSPropertyOp4
 70
     1
102
RTVSPropertyOp5
 70
     1
102
RTVSPropertyOp6
 70
     1
102
RTVSPropertyOp7
 70
     1
102
RTVSPropertyOp8
 70
     1
102
RTVSPropertyOp9
 70
     1
102
RTVSPropertyOp10
 70
     1
102
RTVSPropertyOp11
 70
     1
102
RTVSPropertyOp12
 70
     1
102
RTVSPropertyOp13
 70
     1
102
RTVSPropertyOp14
 70
     1
102
RTVSPropertyOp15
 70
     1
102
RTVSPropertyOp16
 70
     1
102
RTVSPropertyOp17
 70
     1
102
RTVSPropertyOp18
 70
     1
102
RTVSPropertyOp19
 70
     1
102
RTVSPropertyOp20
 70
     1
102
RTVSPropertyOp21
 70
     1
102
RTVSPropertyOp22
 70
     1
102
RTVSPropertyOp23
 70
     1
102
RTVSPropertyOp24
 70
     1
102
RTVSPropertyOp25
 70
     1
102
RTVSPropertyOp26
 70
     1
102
RTVSPropertyOp27
 70
     1
  0
XRECORD
  5
466
102
{ACAD_REACTORS
330
465
102
}
330
465
100
AcDbXrecord
280
     1
102
RTVSPropertyOp0
 70
     1
102
RTVSPropertyOp1
 70
     1
102
RTVSPropertyOp2
 70
     1
102
RTVSPropertyOp3
 70
     1
102
RTVSPropertyOp4
 70
     1
102
RTVSPropertyOp5
 70
     1
102
RTVSPropertyOp6
 70
     1
102
RTVSPropertyOp7
 70
     1
102
RTVSPropertyOp8
 70
     1
102
RTVSPropertyOp9
 70
     1
102
RTVSPropertyOp10
 70
     1
102
RTVSPropertyOp11
 70
     1
102
RTVSPropertyOp12
 70
     1
102
RTVSPropertyOp13
 70
     1
102
RTVSPropertyOp14
 70
     1
102
RTVSPropertyOp15
 70
     1
102
RTVSPropertyOp16
 70
     1
102
RTVSPropertyOp17
 70
     1
102
RTVSPropertyOp18
 70
     1
102
RTVSPropertyOp19
 70
     1
102
RTVSPropertyOp20
 70
     1
102
RTVSPropertyOp21
 70
     1
102
RTVSPropertyOp22
 70
     1
102
RTVSPropertyOp23
 70
     1
102
RTVSPropertyOp24
 70
     1
102
RTVSPropertyOp25
 70
     1
102
RTVSPropertyOp26
 70
     1
102
RTVSPropertyOp27
 70
     1
  0
XRECORD
  5
468
102
{ACAD_REACTORS
330
467
102
}
330
467
100
AcDbXrecord
280
     1
102
RTVSPropertyOp0
 70
     1
102
RTVSPropertyOp1
 70
     1
102
RTVSPropertyOp2
 70
     1
102
RTVSPropertyOp3
 70
     1
102
RTVSPropertyOp4
 70
     1
102
RTVSPropertyOp5
 70
     1
102
RTVSPropertyOp6
 70
     1
102
RTVSPropertyOp7
 70
     1
102
RTVSPropertyOp8
 70
     1
102
RTVSPropertyOp9
 70
     1
102
RTVSPropertyOp10
 70
     1
102
RTVSPropertyOp11
 70
     1
102
RTVSPropertyOp12
 70
     1
102
RTVSPropertyOp13
 70
     1
102
RTVSPropertyOp14
 70
     1
102
RTVSPropertyOp15
 70
     1
102
RTVSPropertyOp16
 70
     1
102
RTVSPropertyOp17
 70
     1
102
RTVSPropertyOp18
 70
     1
102
RTVSPropertyOp19
 70
     1
102
RTVSPropertyOp20
 70
     1
102
RTVSPropertyOp21
 70
     1
102
RTVSPropertyOp22
 70
     1
102
RTVSPropertyOp23
 70
     1
102
RTVSPropertyOp24
 70
     1
102
RTVSPropertyOp25
 70
     1
102
RTVSPropertyOp26
 70
     1
102
RTVSPropertyOp27
 70
     1
  0
XRECORD
  5
47C
102
{ACAD_REACTORS
330
47B
102
}
330
47B
100
AcDbXrecord
280
     1
102
RTVSPropertyOp0
 70
     1
102
RTVSPropertyOp1
 70
     1
102
RTVSPropertyOp2
 70
     1
102
RTVSPropertyOp3
 70
     1
102
RTVSPropertyOp4
 70
     1
102
RTVSPropertyOp5
 70
     1
102
RTVSPropertyOp6
 70
     1
102
RTVSPropertyOp7
 70
     1
102
RTVSPropertyOp8
 70
     1
102
RTVSPropertyOp9
 70
     1
102
RTVSPropertyOp10
 70
     1
102
RTVSPropertyOp11
 70
     1
102
RTVSPropertyOp12
 70
     1
102
RTVSPropertyOp13
 70
     1
102
RTVSPropertyOp14
 70
     1
102
RTVSPropertyOp15
 70
     1
102
RTVSPropertyOp16
 70
     1
102
RTVSPropertyOp17
 70
     1
102
RTVSPropertyOp18
 70
     1
102
RTVSPropertyOp19
 70
     1
102
RTVSPropertyOp20
 70
     1
102
RTVSPropertyOp21
 70
     1
102
RTVSPropertyOp22
 70
     1
102
RTVSPropertyOp23
 70
     1
102
RTVSPropertyOp24
 70
     1
102
RTVSPropertyOp25
 70
     1
102
RTVSPropertyOp26
 70
     1
102
RTVSPropertyOp27
 70
     1
  0
XRECORD
  5
472
102
{ACAD_REACTORS
330
471
102
}
330
471
100
AcDbXrecord
280
     1
102
RTVSPropertyOp0
 70
     1
102
RTVSPropertyOp1
 70
     1
102
RTVSPropertyOp2
 70
     1
102
RTVSPropertyOp3
 70
     1
102
RTVSPropertyOp4
 70
     1
102
RTVSPropertyOp5
 70
     1
102
RTVSPropertyOp6
 70
     1
102
RTVSPropertyOp7
 70
     1
102
RTVSPropertyOp8
 70
     1
102
RTVSPropertyOp9
 70
     1
102
RTVSPropertyOp10
 70
     1
102
RTVSPropertyOp11
 70
     1
102
RTVSPropertyOp12
 70
     1
102
RTVSPropertyOp13
 70
     1
102
RTVSPropertyOp14
 70
     1
102
RTVSPropertyOp15
 70
     1
102
RTVSPropertyOp16
 70
     1
102
RTVSPropertyOp17
 70
     1
102
RTVSPropertyOp18
 70
     1
102
RTVSPropertyOp19
 70
     1
102
RTVSPropertyOp20
 70
     1
102
RTVSPropertyOp21
 70
     1
102
RTVSPropertyOp22
 70
     1
102
RTVSPropertyOp23
 70
     1
102
RTVSPropertyOp24
 70
     1
102
RTVSPropertyOp25
 70
     1
102
RTVSPropertyOp26
 70
     1
102
RTVSPropertyOp27
 70
     1
  0
XRECORD
  5
47A
102
{ACAD_REACTORS
330
479
102
}
330
479
100
AcDbXrecord
280
     1
102
RTVSPropertyOp0
 70
     1
102
RTVSPropertyOp1
 70
     1
102
RTVSPropertyOp2
 70
     1
102
RTVSPropertyOp3
 70
     1
102
RTVSPropertyOp4
 70
     1
102
RTVSPropertyOp5
 70
     1
102
RTVSPropertyOp6
 70
     1
102
RTVSPropertyOp7
 70
     1
102
RTVSPropertyOp8
 70
     1
102
RTVSPropertyOp9
 70
     1
102
RTVSPropertyOp10
 70
     1
102
RTVSPropertyOp11
 70
     1
102
RTVSPropertyOp12
 70
     1
102
RTVSPropertyOp13
 70
     1
102
RTVSPropertyOp14
 70
     1
102
RTVSPropertyOp15
 70
     1
102
RTVSPropertyOp16
 70
     1
102
RTVSPropertyOp17
 70
     1
102
RTVSPropertyOp18
 70
     1
102
RTVSPropertyOp19
 70
     1
102
RTVSPropertyOp20
 70
     1
102
RTVSPropertyOp21
 70
     1
102
RTVSPropertyOp22
 70
     1
102
RTVSPropertyOp23
 70
     1
102
RTVSPropertyOp24
 70
     1
102
RTVSPropertyOp25
 70
     1
102
RTVSPropertyOp26
 70
     1
102
RTVSPropertyOp27
 70
     1
  0
ENDSEC
  0
EOF
